Kings Of Leon - Arizona Chords & Tabs

 

Arizona Chords & Tabs

Kings Of Leon Chords & Tabs

Version: 1 Type: Bass Tab 0 ratings
1 star 2 stars 3 stars 4 stars 5 stars
comments

Arizona Bass Tab

   
Listen to the track to figure out the order


Intro
G|---------------------------|
D|---------------------------|
A|---------------------------|
E|-12-12-12-12-12-12-12-12-12|  

0:26

G|-----------------------|
D|---14--13--11----------|
A|---------------14-12-11|
E|-12--12--12--12--------|



Shake hands...

G|------------------|
D|-----------11-9-11|
A|------11----------|
E|-12-9----9--------|

My face...

G|-----------------------|
D|---14--13--11----------|
A|---------------14-12-11|
E|-12--12--12--12--------|




3:21
[ Tab from: http://www.guitartabs.cc/tabs/k/kings_of_leon/arizona_btab.html ]
G|---------13-14-13-------------13-14-13----|
D|---14-16----------16----14-16----------16-|  
A|------------------------------------------|   
E|-12------------------12-------------------|
   
G|--------13-------------------13----------|
D|---14-16---------------14-16-------------|
A|-----------14-14-14-------------14-14-14-|
E|-12-----------------12-------------------|


3:46

G|-----------------------|
D|---14--13--11----------|
A|---------------14-12-11|
E|-12--12--12--12--------|

4:04

G|-----------13--------|
D|---14-13-14--14-13-14|
A|---------------------|
E|-12------------------|  x4

G|-----------------------|
D|---14--13--11----------|
A|---------------14-12-11|
E|-12--12--12--12--------| fade out
Comments