Kings Of Leon - 17 Chords & Tabs

 

17 Chords & Tabs

Kings Of Leon Chords & Tabs

Version: 4 Type: Bass Tab 0 ratings
1 star 2 stars 3 stars 4 stars 5 stars
comments

17 Bass Tab

   
----------------------------------------------------------------------------
			     SONG NAME - Band Name
----------------------------------------------------------------------------

Tabbed By : CavinSedera
e-mail: falldown.md@gmail.com

Tuning:standard

Intro I     Intro II         repeat this 
G|--------|----------------------------------------------------------------|
D|--------|----------------------------------------------------------------|
A|33333333|-/1515151514~1212121210~555599991010101010101010\---------------|
E|--------|----------------------------------------------------------------|

Verse                      do this entire bassline 3X
G|---12/14/16~14-----------------------------------------------------------|
D|--------------------11---------------------------------------------------|
A|12~---------------12--14~12\10101010-9999-7777-5555----------------------|
E|---------------12~-------------------------------------------------------|
[ Tab from: http://www.guitartabs.cc/tabs/k/kings_of_leon/17_btab_ver_4.html ]
                           on the fourth time play this
G|---12/14/16~14-----------------------------------------------------------|
D|--------------------11---------------------------------------------------|
A|12~---------------12--14~12----------------5575--------------------------|
E|---------------12~----------3353-2242-0020-------------------------------|
                          
on the fourth run through on 2 verse it kinda the same dealio but not.

G|---12/14\--------16------------------------------------------------------|
D|-----------14-14----14---------------------------------------------------|
A|12~-----------------------------------5575-------------------------------|
E|-----------------------3353-2242-0020------------------------------------|

Chorus                                                                      
G|-------------------------------------------------------------------------|
D|-------------------------------------------------------------------------|
A|------------------5555\999910-10-10-10-10-10-12-10-----------------------|
E|88888888-55555555--------------------------------------------------------|

outro 
G|-------------------------------------------------------------------------|
D|-------------------------------------------------------------------------|
A|-15151515-14141414-12121212-10101010-5555-9999-10101010101010------------|
E|-------------------------------------------------------------3~----------|

EL FIN.  


| /  slide up
| \  slide down
| h  hammer-on
| p  pull-off
| ~  vibrato
| +  harmonic
| x  Mute note
============================================================================
Comments