Kings Of Convenience - Winning A Battle Losing The War Chords & Tabs

 

Winning A Battle Losing The War Chords & Tabs

Kings Of Convenience Chords & Tabs

Version: 2 Type: Tab

Winning A Battle Losing The War Tab

   
Kings of Convenience - "Winning A Battle , Losing The War"
for 1 guitar. 



Intro:

|------0---------0-----|
|----6--6--------------|
|-----7--0---7----2-0--| x4 
|------0--------0--0---| 
|----------8-----------|
|--6-------------------|

-------------------------------------------------------------------------

main part:

|------3---------0----|
|----1---1-----1------|
|-----2-2---0---0-0*--| x2
|------3------3-------| 
|----------3----------|
|--1------------------|
*sometimes the last 0 isn't played


|------0---------0-----|
|----6--6--------------|
|-----7--0---7----2-0--| x2 
|------0--------0--0---| 
|----------8-----------|
|--6-------------------|

-------------------------------------------------------------------------

istrumental:                   
[ Tab from: http://www.guitartabs.cc/tabs/k/kings_of_convenience/winning_a_battle_losing_the_war_tab_ver_2.html ]
|------0--0---0-----|       |------1--1---1-----|
|----3--3---3---3---|       |----3--3---3---3---|
|-----0--0---0---0--|       |-----3--3---3---3--|
|------2------2-----|       |------3------3-----|
|--3------3---------|       |--1------1---------|
|-------------------|       |-------------------|

|--------------|
|--------------|
|-----0-2-0----| x2
|----3-----3---| 
|---3-------3--|
|--1-----------|

-------------------------------------------------------------------------

the sun sets on the war....
                        
|----0----0--------|    |----0----0--------|
|-----10---10--10--|    |-----10---10--10--|
|-------10---10----|    |-------10---10----|
|--10--------------|    |--12--------------|
|------------------|    |------------------|
|------------------|    |------------------|

new...

C9  ,  B

-------------------------------------------------------------------------

instrumental 2:

F  , Dm/Bb

-------------------------------------------------------------------------

the sun sets on the war....
(at the end)

|------3---------0----|
|----1---1-----1------|
|-----2-2---0---0-----| x2
|------3------3-------| 
|----------3----------|
|--1------------------|

end chord: (new...)

|--~0--|
|--~1--|
|--~2--| x 2
|--~3--|
|--~3--|
|------|


tabbed by Elad Matari
eladmat@walla.co.il