Kings Of Convenience - Misread Chords & Tabs

 

Misread Chords & Tabs

Kings Of Convenience Chords & Tabs

Version: 1 Type: Tab 0 ratings
1 star 2 stars 3 stars 4 stars 5 stars
comments

Misread Tab

   
			     MISREAD -Kings of convenience
Tabbed by: Salvatore Ascione
Email: byebyeblues@virgilio.it

This is a beautiful song. I find my tab is quite rough but it sounds good to me.Any 
are welcome.This Tab is dedicated to Roberta, my sweetheart.

Tuning:Standard

Intro with piano part

   Amin7  Dmin7
e|---x-----X-----------------------------------------------------------------|
B|---5-----5-----------------------------------------------------------------|
G|---5-----5-----------------------------------------------------------------|
D|---5-----3-----------------------------------------------------------------|
A|---x-----5-----------------------------------------------------------------|
E|---5-----x-----------------------------------------------------------------|


Verse:
[ Tab from: http://www.guitartabs.cc/tabs/k/kings_of_convenience/misread_tab.html ]
...If you wanna be my friend...and you want us to get along...etc..
   Dmin7  Cmaj9
e|---x-----x-----------------------------------------------------------------|
B|---5-----3-----------------------------------------------------------------|
G|---5-----4-----------------------------------------------------------------|
D|---0-----2-----------------------------------------------------------------|
A|---5-----3-----------------------------------------------------------------|
E|---x-----x-----------------------------------------------------------------|


Chorus
...What do you know...it happened once again....
    Dmin7 Emin7 Amin7
e|---x-----x-----x------------------------------------------------------------|
B|---5-----8-----5------------------------------------------------------------|
G|---5-----7-----5------------------------------------------------------------|
D|---0-----0-----5------------------------------------------------------------|
A|---5-----7-----x------------------------------------------------------------|
E|---x-----x-----5------------------------------------------------------------|


Have fun!!!

| /  slide up
| \  slide down
| h  hammer-on
| p  pull-off
| ~  vibrato
| +  harmonic
| x  Mute note
Comments