Kings Of Convenience - Little Kids Chords & Tabs

 

Little Kids Chords & Tabs

Kings Of Convenience Chords & Tabs

Version: 3 Type: Tab 0 ratings
1 star 2 stars 3 stars 4 stars 5 stars
comments

Little Kids Tab

Little Kids - Kings Of Convenience
(more KOC tab at www.shedjo.co.uk)

Tuning; Standard Capo 2


Intro;

|----------------|
|-2-2-2-0-3-3-3-0|
|-2-2-2-0-2-2-2-0| x4
|4-4---0---------|
|----0---2-2-----|
|------------3-3-|

Main bit

(1)

|----------------|
|-2-2-2-0-3-3-3-0| (same as intro...)
|-2-2-2-0-2-2-2-0|
|4-4---0---------|
|----0---2-2-----|
|------------3-3-|

but then.....

(2)
[ Tab from: http://www.guitartabs.cc/tabs/k/kings_of_convenience/little_kids_tab_ver_3.html ]
|----------------|----------------|----------------|----------------|----------------|----------------|
|-2-2-2-0-3-3-3-0|-2-2---0-3-3-3-0|-2-2---0-3-3-3-0|-2-2---0-3-3-3-0|-2-2---0-3-3-3-0|-2-2-2-2--------|
|-2-2-2-0-2-2-2-0|-2-2---0-2-2-2-0|-2-2---0-2-2-2-0|-2-2---0-2-2-2-0|-2-2---0-2-2-2-0|-2-2-2-2--------|
|4-4---0---------|-42-2-----0-4---|-42-2-----0-4---|-42-2-----0-4---|-42-2----0------|--4-4-4-4-4-4-4-|
|----0---2-2-----|---4-4012-------|---4-4012-------|---4-4012-------|---4-4012-4242--|----------------|
|------------3-01|2-------------01|2-------------01|2-------------01|2-------------01|2---------------|


Then back to main bit (1) for a while then (2) again. But then.....

|----------------|
|-2-2-2-2-3-3-3-3|
|-2-2-2-2-2-2-2-2|
|----------------|
|----------------|
|----------------|

and after a few bars, this one joins in too;

|-4-4-4-4-2-2-2-2|
|-5-5-5-5-3-3-3-3|
|----------------|
|----------------|
|----------------|
|----------------|

Then back to the other bits again.........

THE END...........(you got all that?...) :)


? Copyright Simon Bance 2001 - http://www.shedjo.co.uk
Comments