Kings Of Convenience - I Dont Know What I Can Save You From Chords & Tabs

 

I Dont Know What I Can Save You From Chords & Tabs

Kings Of Convenience Chords & Tabs

Version: 1 Type: Tab 0 ratings
1 star 2 stars 3 stars 4 stars 5 stars
comments

I Dont Know What I Can Save You From Tab

   
##################################################################################
# This file is the author's own work and represents their interpretation of the  #
# song. You may only use this file for private study, scholarship, or research.  #
##################################################################################

Kings of convenience - I don't know what I can save you from

for 2 guitars

Intro/instrumental:

Guitar 1:

| Dsus2 | Dsus2 || F#m/B | F#m/B || A6 | A ,Asus2 || G | G , A ||  

Guitar 2: 
(put your right hand on the edge of the strings and play with your thumb) 

|----------0----------------||---------0-----------------|
|---------------------------||---------------------------|
|---------------11-9--------||---------------11-9--------|
|------------12------12-11--||-------9----12------12-11--|
|-----9-12------------------||--9-12---------------------|
|--10-----------------------||---------------------------|

|---------0----------------||--------------------|:|------|
|--------------------------||--------------------|:|------|
|--------------9-----------||----------------9---|:|------|
|-------9---11---12-11-----||--9----9-11--12-----|:|--11--|
|--9-12----------------12--||--------------------|:|------|
|--------------------------||--------------------|:|------|


tabbed by Elad Matari
eladmat@walla.co.il


********************************************************************************************************************
[ Tab from: http://www.guitartabs.cc/tabs/k/kings_of_convenience/i_dont_know_what_i_can_save_you_from_tab.html ]
********************************************************************************************************************



Hi there - I came looking for this tab only to find it was not 
tabbed ANYWHERE! OUTRAGE! So be patient, its my first time....
                       KINGS OF CONVIENIENCE
               'I dont know what I can save you from'
   
capo 2/3 depending on wherevers comfortable

INTRO;(Strum Am C, F7 C, Am C, F7 G)

'THAT'CHORUS RIFF;

Arpeggiate C, Am, Em.

-]-----0------------1-----------------------------------------
-]----1--3-1-0-----1--3-1-0------0--3-1-0---------------------
-]---0------------2-------------0--------0-0/2-2222-2/4/5/7---
-]--2------------2-------------2------------------------------
-]-3------------0-------------2-------------------------------
-]------------------------------------------------------------

OUTRO; (Am C, F7 C, Am C, F7 G x2then...)
(Top three strings)
-]-----------------------------------------------------------
-]-5-5/12-121212/77777/555555555/88888/77777/5-333333333-2-0-
-]-----------------------------------------------------------

Strum this gently
Am                C              F7    C
I don't know what I can save you from (x3)


END ON APREGIATING C 

Hope this is sufficient - if you want anymore help with anything 
mail me at halazhar@hotmail.com


********************************************************************************************************************
Comments