Kings Of Convenience - Failure Chords & Tabs

 

Failure Chords & Tabs

Kings Of Convenience Chords & Tabs

Version: 4 Type: Tab 0 ratings
1 star 2 stars 3 stars 4 stars 5 stars
comments

Failure Tab

   
##################################################################################
# This file is the author's own work and represents their interpretation of the  #
# song. You may only use this file for private study, scholarship, or research.  #
##################################################################################


Kings of convenience.
FAILURE
Tuning Info
#####################
e as e
B as B
G as G
D as D
A as A
e as e
#####################


THE FIRST GUITAR  play like this (VERSE ,CHORUS)
1)
e|--0----------------
B|--9----------------
G|--8----------------
D|--9----------------
A|-------------------
E|-------------------

2)
e|--0----------------
B|--7----------------
G|--6----------------
D|--7----------------
A|-------------------
E|-------------------

The first guitar in the instrumental chorus plays:
1)
e|--0----------------
B|--9----------------
G|--8----------------
D|--9----------------
A|-------------------
E|-------------------

2)

e|--0----------------
B|--8----------------
G|--9----------------
D|--9----------------
A|-------------------
E|-------------------

3)

e|--0----------------
B|--10---------------
G|--11---------------
D|--11---------------
A|-------------------
E|-------------------

4)

e|--0----------------
B|--10---------------
G|--9----------------
D|--10---------------
A|-------------------
E|-------------------

5)
[ Tab from: http://www.guitartabs.cc/tabs/k/kings_of_convenience/failure_tab_ver_4.html ]
e|--10---------------
B|--10---------------
G|--9----------------
D|--10---------------
A|-------------------
E|-------------------
___________________________________________________________
SECOND GUITAR
Play like a bass-line
Guitar
x = 10
e|------------------------------------------------------|
B|------------------------------------------------------|
G|------------------------------------------------------|
D|------------------------------------------------------|
A|------------------------------------------------------|
e|7-777-77-7-77-777-777-77-7-77-777-777-77/x-xxxx-xxx/9999-99/5-5555-55|

CHORUS (INSTRUMENTAL)
e|------------------------------------------------------|
B|------------------------------------------------------|
G|------------------------------------------------------|
D|------------------------------------------------------|
A|------------------------------------------------------|
E|0-000-07-77--7-7--------------------------------------|PLAY 3 TIMES


e|------------------------------------------------------|
B|------------------------------------------------------|
G|------------------------------------------------------|
D|------------------------------------------------------|
A|------------------------------------------------------|
E|5-555-5-5-55--5-5/5-555-5-3-33--3-3-------------------|

e|------------------------------------------------------|
B|------------------------------------------------------|
G|------------------------------------------------------|
D|------------------------------------------------------|
A|------------------------------------------------------|
E|0-000-0-7-77--7-7/0-000-0-0-00--0-0--------------------

THANKS TO "KINGS OF CONVENIENCE" FOR THE GOOD MUSIC .YOU'RE GREAT!!!!!!!
SONG TABBED BY BRUNO GAMBA 2001
Comments