Kings Of Convenience - Caymen Islands Chords & Tabs

 

Caymen Islands Chords & Tabs

Kings Of Convenience Chords & Tabs

Version: 1 Type: Tab 0 ratings
1 star 2 stars 3 stars 4 stars 5 stars
comments

Caymen Islands Tab

CAYMAN ISLANDS - KINGS OF CONVENIENCE


Tabbed by Mellowecho
 
INTRO 
                                            (Play this twice)

e|0------------0---------|-0---------------------|
B|-------3------------3--|--------3-----1-----0--|
G|-----2------------2----|------2-----------2----|
D|---3------------3------|----3-----------3-----0|
A|-----------------------|-----------------------|
E|1---------1--1--------1|-3---------3--3--------|

e|-----------------------|-----------------------|
B|-0------0-----0-----0--|-0------0-----1-----3--|
G|------0-----------0----|------0-----------0----|
D|----2-----------2------|----2-----------2------|
A|-3---------3--3-------3|-0---------0--0-------0|
E|-----------------------|-----------------------|


Verse 

e|0------------0---------|-0---------------------|
B|-------3------------3--|--------3-----1-----0--|
G|-----2------------2----|------2-----------2----|
D|---3------------3------|----3-----------3-----0|
A|-----------------------|-----------------------|
E|1---------1--1--------1|-3---------3--3--------|
  Through the alleyways    to cool off in the shadows 

e|-----------------------|-----------------------|
B|-0------0-----0-----0--|-0------0-----1-----3--|
G|------0-----------0----|------0-----------0----|
D|----2-----------2------|----2-----------2------|
A|-3---------3--3-------3|-0---------0--0-------0|
E|-----------------------|-----------------------|
   Then into the street    following the water 

e|0------------0---------|-0---------------------|
B|-------3------------3--|--------3-----1-----0--|
G|-----2------------2----|------2-----------2----|
D|---3------------3------|----0-----------0-----0|
A|-----------------------|-----------------------|
E|1---------1--1--------1|-3---------3--3--------|
  There's a bearded man    paddling in his canoe 

e|-----------------------|-----------------------|
B|-0------0-----0-----0--|-0------0-----1-----3--|
G|------0-----------0----|------0-----------0----|
D|----2-----------2------|----2-----------2------|
A|-3---------3--3-------3|-0---------0--0-------0|
E|-----------------------|-----------------------|
   Looks as if he has      come the way from the Cayman Islands 


Verse 
[ Tab from: http://www.guitartabs.cc/tabs/k/kings_of_convenience/caymen_islands_tab.html ]
These canals, it seems, they all go in circles 
Places look the same, and we're the only difference 
The wind is in your hair, it's covering my view 
I'm holding on to you, on a bike we've hired until tomorrow 



e|0----------------------|-----------------------|
B|-------3-----3------3--|-3------3-----0-----0--|
G|-----2------------2----|------2-----------2----|
D|---3------------3------|----3-----------3------|
A|-----------------------|-----------------------|
E|1---------1--1--------1|-3---------3--3-------3|

e|0------------0---------|-0------------0--------|
B|-------3------------3--|--------3-----------3--|
G|-----2------------2----|------2-----------2----|
D|---4------------4------|----4-----------4------|
A|-----------------------|-----------------------|
E|2---------2--2--------2|-2---------2--2-------2|

e|0------------0---------|-0------------0--------|
B|-------3------------3--|--------3-----------3--|
G|-----2------------2----|------0-----------0----|
D|---3------------3------|----0-----------0------|
A|-----------------------|-----------------------|
E|1---------1--1--------1|-0---------0--0-------0|

e|0------------0---------|-8------------8--------|-8------------8--------|
B|-------0------------0--|--------0-----------0--|--------0-----------0--|
G|-----2------------2----|------0-----------0----|------0-----------0----|
D|---0------------0------|----7-----------7------|----7-----------7------|
A|-----------------------|-0---------0--0--------|-0---------0--0-------0|
E|0---------0--0--------0|-----------------------|-----------------------|

e|0------------0---------|-0------------0--------|
B|-------0------------0--|--------0-----------0--|
G|-----5------------5----|------5-----------5----|
D|---7------------7------|----7-----------7------|
A|0---------0--0--------0|-0---------0--0--------|
E|-----------------------|----------------------0|


Verse 

If only they could see, if only they had been here 
They would understand, how someone could have chosen 
To go the length I've gone, to spend just one day riding 
Holding on to you, I never thought it would be this clear


(Play intro three times to finish)

Any comments or additions email: mellowecho@btinternet.com
Comments