Kingmaker - Playground Brutality Chords & Tabs

 

Playground Brutality Chords & Tabs

Kingmaker Chords & Tabs

Version: 1 Type: Tab 0 ratings
1 star 2 stars 3 stars 4 stars 5 stars
comments

Playground Brutality Tab

#----------------------------------PLEASE NOTE---------------------------------#
#This file is the author's own work and represents their interpretation of the #
#song. You may only use this file for private study, scholarship, or research. #
#------------------------------------------------------------------------------


From s001@nlcimc.demon.co.uk Thu May  8 14:26:49 1997
Date: Thu, 17 Apr 1997 14:13:27 +0100
From: COOLPETE 

Subject: Playground Brutality by KINGMAKER

I can't understand why nobody has had the urge to tab any Kingmaker
stuff.
And so when I found out that the most desirable 'femme fatale' in the
universe was into them - I got some urges!! [not for the first time
either!]

This one's for the 'lurverly' Gisele.



KINGMAKER - Playground Brutality - from the album SLEEPWALKING

Transcribed by: COOLPETE


INTRO.
[ Tab from: http://www.guitartabs.cc/tabs/k/kingmaker/playground_brutality_tab.html ]
E|--------5-------------------------------------5-----------------|
B|----6---------------6-------------8-------6---------------6-----|
G|--7---7---------7------------9----------7---7---------7---------|
D|--------------8---8-------10---10-------------------8---8-------|
A|----------------------------------------------------------------|
E|----------------------------------------------------------------|


E|--------5-------------------------------------5-----------------|
B|----6---------------6-------------8-------6---------------6-----|
G|--7---7---------7------------9----------7---7---------7---------|
D|--------------8---8-------10---10-------------------8---8-------|
A|----------------------------------------------------------------|
E|----------------------------------------------------------------|


E|----------------------------|
B|----------8-----------8-----|
G|-----9-----------9----------|
D|--10---10-----10---10-------|
A|----------------------------|
E|----------------------------|






If you can tab faster than a paralysed slug, then give us a hand with
the next bit.

Or alternatively, if you think you know how to play the intro properly,
tell me.

e-mail me if you like:
James, Happy Mondays, The Charlatans, Radiohead, Ash, Inspiral Carpets.
etc.

Inform me of the coolest / your favourite solos too.

COOLPETE
-- 
Comments