King Prawn - The Dominant View Chords & Tabs

 

The Dominant View Chords & Tabs

King Prawn Chords & Tabs

Version: 2 Type: Bass Tab 0 ratings
1 star 2 stars 3 stars 4 stars 5 stars
comments

The Dominant View Bass Tab

Intro/Verse

G|----------------------------------
D|----------------------------------
A|-3-3-1-3---1-4--------------------
E|---------3------------------------

Chorus
[ Tab from: http://www.guitartabs.cc/tabs/k/king_prawn/the_dominant_view_btab_ver_2.html ]
G|----------------------------------
D|----3-3-1-1-----------------------
A|3-3-------------------------------
E|----------------------------------

Bridge

G|----------------------------------
D|---------3-3-3-3---------1-3-1----
A|-3-3-3-3---------3-3-3-3----------
E|----------------------------------
Comments