King Paul - Love And Pride Chords & Tabs

 

Love And Pride Chords & Tabs

King Paul Chords & Tabs

Version: 1 Type: Bass Tab 0 ratings
1 star 2 stars 3 stars 4 stars 5 stars
comments

Love And Pride Bass Tab

Paul King - Love & Pride

padampam padampam padampam...
verse
-----------------------|-------------------|-----------------------|-------------------
-----------------------|-------------------|-----------------------|-------------------
-5---5-----3-----------|------------3-2----|-5---5-----3-----------|--------------5-/8-
-------------3--3----3-|-5---5----5-----5-3|-------------3--3----3-|-5---5---5-/8------

2nd time replace the last bar with
-------------------
-------------2-3-2-
-----------3-------
-5---5---5---------

chorus 4x
-------------------------------
-------------------------------
-5---------------------------2-
----(5/)3----0--5----0---3-----

chorus end
----------------------p4--p5---
-------------------------------
-5-------------------2---3-----
----(5/)3----0--5--------------
[ Tab from: http://www.guitartabs.cc/tabs/k/king_paul/love_and_pride_btab.html ]
bridge
----------------------p4-|---p7-------------p4-p5-|---------------------(p5)|---p7---------
-------------------------|------------------------|-------------------------|--------------
-5-------------------2---|-5-------------r-2--3---|-5-------------------3---|-5------------
-----0-3---3-5---0-3-----|-----0-3---3-5----------|-----0-3---3-5---0-3-----|-----0-3-3-3/-

then play verse twice and replace the last bar the first and second time:
-------------------
-------------2-3-2-
-----------3-------
-5---5---5---------

chorus 5x / chorus end / bridge / verse (ending like the first time)

interlude (play this until verse)
---------------|---------------|	|-------------
----3--2--3--5-|----3--2-------|	|---3--2---3--
-5-------------|-5--------5--3-|	|-5------5----
---------------|---------------| end on |-------------

verse
only the first time end on
-------------------|
-------------2-3-2-|
-----------3-------|
-5---5---5---------|

end on a|5

submitted by dION (kantongerecht@hotmail.com)
Comments