King Mungi - Languish Chords & Tabs

 

Languish Chords & Tabs

King Mungi Chords & Tabs

Version: 1 Type: Tab 0 ratings
1 star 2 stars 3 stars 4 stars 5 stars
comments

Languish Tab

King Mungi is a Band from the gold coast in Australia, Ben Whitecross on the vocals,
Cory Absell on bass, Clayton Barnard on drums and Chris Burt on guitars.
----------------------------------------------------------------------------
                         Languish - King Mungi
----------------------------------------------------------------------------
Tabed by: Sam Vieritz
Email: charger211@hotmail.com

Tuning: drop D tune down one step (drop C)

 INTRO 
d|------------------------------------------------------|
A|------------------------------------------------------|
F|------------------------------------------------------|
C|-5-5-5--1---5-5-5--1---10-1010101010-1212121212121212-|
G|-5-5-5--1---5-5-5--1---10-1010101010-1212121212121212-|
C|-5-5-5--1---5-5-5--1---10-1010101010-1212121212121212-|
                         [ 10th fret ] [  12th fret   ]
                                                           INTRO x2
                                                          
d|------------------------------------------------------|
A|------------------------------------------------------|
F|------------------------------------------------------|
C|-5-5-5--1---5-5-5--1---10-1010101010-88888888---------|
G|-5-5-5--1---5-5-5--1---10-1010101010-88888888---------|
C|-5-5-5--1---5-5-5--1---10-1010101010-88888888---------|
                         [ 10th fret ]


 Maybe this is what you call an INTERLOOD  :)
d|-------------------------------------|
A|-------------------------------------|
F|-------------------------------------|
C|-55555-555-5-555---55555-555-5-555---|
G|-55555-555-5-555---55555-555-5-555---|
C|-55555-555-5-555---55555-555-5-555---|


d|-------------------------------------|
A|-------------------------------------|         
F|-------------------------------------|
C|-55555-555-5-555---55555-5-55555555--|
G|-55555-555-5-555---55555-5-55555555--|
C|-55555-555-5-555---55555-5-55555555--|


[ Tab from: http://www.guitartabs.cc/tabs/k/king_mungi/languish_tab.html ]
 VERSE 
d|-------------------------------------------|
A|-------------------------------------------|
F|-------------------------------------------|
C|-5-5-5-1---5-5-5-1---5-5-5-1---10-10-10-12-|
G|-5-5-5-1---5-5-5-1---5-5-5-1---10-10-10-12-|
C|-5-5-5-1---5-5-5-1---5-5-5-1---10-10-10-12-|
                                                 VERSE   x2

d|-------------------------------------------|
A|-------------------------------------------|
F|-------------------------------------------|
C|-5-5-5-1---5-5-5-1---5-5-5-1---10-10-10-8--|
G|-5-5-5-1---5-5-5-1---5-5-5-1---10-10-10-8--|
C|-5-5-5-1---5-5-5-1---5-5-5-1---10-10-10-8--|


 
 VERSE 2
d|--------------------------------------------------------|
A|--------------------------------------------------------|
F|--------------------------------------------------------|
C|------------------3-3----------------3-5--3-5-3--1-1-1--|
G|------------------3-3-let ring-------3-5--3-5-3--1-1-1--|
C|-5-5555-66-6-8-8--3-3----------------3-5--3-5-3--1-1-1--|

d|------------------------------------------|
A|------------------------------------------|
F|------------------------------------------|
C|-5-5--6-6--8---1-1----3-5---3-5-3--1-1-1--|
G|-5-5--6-6--8---1-1----3-5---3-5-3--1-1-1--|
C|-5-5--6-6--8---1-1----3-5---3-5-3--1-1-1--|


 play the INTERLOOD again 

 then the INTRO

 then VERSE 2



 VERSE 3                                    this is at the end of verse 3 
d|---------------------------------|               |--------------------|
A|---------------------------------|               |--------------------|
F|---------------------------------|               |--------------------|
C|-55555-5--555-7--5555-8-7---5/7--|  VERSE 3  x6  |-5555-111-----------|
G|-55555-3--555-5--5555-6-5---3/5--|               |--------------------|
C|-55555----555----5555------------|               |--------------------|


outro
d|--------------------------------|
A|--------------------------------|
F|--------------------------------|
C|-55555--55555--55555--55558888--|
G|-55555--55555--55555--55558888--|
C|-55555--55555--55555--55558888--|


d|------------------------------------------|
A|------------------------------------------|
F|------------------------------------------|
C|-5-5-5-1---5-5-5-1---5-5-5-1---5-5---5-5--|
G|-5-5-5-1---5-5-5-1---5-5-5-1---5-5---5-5--|
C|-5-5-5-1---5-5-5-1---5-5-5-1---5-5---5-5--|

 Thats it! it's nowhere near perfect but it's somthing so I hope you like 
 it. just listen to the song to pick it up... enjoy :)
Comments