King Crimson - Moon Child Chords & Tabs

 

Moon Child Chords & Tabs

King Crimson Chords & Tabs

Version: 1 Type: Tab 0 ratings
1 star 2 stars 3 stars 4 stars 5 stars
comments

Moon Child Tab

   
#----------------------------------PLEASE NOTE---------------------------------#
#This file is the author's own work and represents their interpretation of the #
#song. You may only use this file for private study, scholarship, or research. #
#------------------------------------------------------------------------------##
Moon Child (Fripp/McDonald/Lake/Giles/Sinfield)
by King Crimson
from the album In the Court of the Crimson King
--------------------------------------------------------------------

  
e:--------|------------|------------|------------|------------|------------|
B:--------|------------|------------|------------|------------|------------|
G:--------|------9-----|------------|7-----7--9--|7-----------|------------|
D:2-------/7-----------|------------|---10-------|---10-7---10|10\7--------|
A:--------|------------|------------|------------|------------|------------|
E:--------|------------|------------|------------|------------|------------|
           Am           Am/G#        Am/G         Am/F#        Am
e:--------|------0-----|------0-----|------0-----|------0-----|------0-----|
B:--------|------1-----|------1-----|------1-----|------1-----|------1-----|
G:--------|---2--------|---2--------|---2--------|---2--------|---2--------|
D:--------|------------|------------|------------|------------|------------|
A:--------|0-----------|------------|------------|------------|0-----------|
E:--------|------------|4-----------|3-----------|2-----------|------------|


                                  
e:------------|------------|------------|------------|------------|
B:------------|------------|------------|------------|------------|
G:------------|------------|------------|------9-----|------------|
D:------------|------------|------------|7-----------|------------|
A:------------|------------|------7--7--|------------|------------|
E:------------|------------|------------|------------|------------|
  Am/G#        Am/G         Am/F#        Am           Am/G#
e:------0-----|------0-----|------0-----|------0-----|------0-----|
B:------1-----|------1-----|------1-----|------1-----|------1-----|
G:---2--------|---2--------|---2--------|---2--------|---2--------|
D:------------|------------|------------|------------|------------|
A:------------|------------|------------|0-----------|------------|
E:4-----------|3-----------|2-----------|------------|4-----------|

[ Tab from: http://www.guitartabs.cc/tabs/k/king_crimson/moon_child_tab.html ]
  
e:------------|------------|------------|------------|------------|
B:------------|------------|------------|------------|------------|
G:7-----7--9--|7-----------|------------|------------|------------|
D:---10-------|---10-7---10|10\7--------|------------|------------|
A:------------|------------|------------|------------|------------|
E:------------|------------|------------|------------|------------|
  Am/G         Am/F#        Am           Am/G#        Am/G
e:------0-----|------0-----|------0-----|------0-----|------0-----|
B:------1-----|------1-----|------1-----|------1-----|------1-----|
G:---2--------|---2--------|---2--------|---2--------|---2--------|
D:------------|------------|------------|------------|------------|
A:------------|------------|0-----------|------------|------------|
E:3-----------|2-----------|------------|4-----------|3-----------|


              
e:------------|------------|------------|------------|------------|
B:------------|------------|------------|------------|------------|
G:------------|9--7--------|------------|------------|------------|
D:------------|------10-7--|9--------7--|7-----------|------------|
A:------------|------------|----------10|------10----|7-----------|
E:------------|------------|------------|------------|------------|
  Am/F         Am           G            Am    G      Em
e:------0-----|0-----------|3-----------|0-----3-----|------------|
B:------1-----|1-----------|0-----------|1-----0-----|0-----------|
G:---2--------|2-----------|0-----------|2-----0-----|0-----------|
D:------------|------------|------------|------------|2-----------|
A:------------|0-----------|------------|0-----------|------------|
E:2-----------|------------|3-----------|------3-----|0-----------|


  
e:------------|------------|------------|------------|------------|
B:------------|------------|------------|------------|------------|
G:9--7--------|------------|------9-----|------------|9--7--------|
D:------10-7--|9--------7--|7-----------|------------|------10-7--|
A:------------|----------10|------------|------------|------------|
E:------------|------------|------------|------------|------------|
  Am           G            Am                        Am
e:0-----------|3-----------|0-----------|5-----------|0-----------|
B:1-----------|0-----------|1-----------|5-----------|1-----------|
G:2-----------|0-----------|2-----------|5-----------|2-----------|
D:------------|------------|------------|------------|------------|
A:0-----------|------------|0-----------|------------|0-----------|
E:------------|3-----------|------------|------------|------------|


  
e:------------|------------|------------|------------|------------|
B:------------|------------|------------|------------|------------|
G:------------|------------|------------|9--7--------|------------|
D:9--------7--|7-----------|------------|------10-7--|9-----7-----|
A:----------10|------10----|7-----------|------------|---------10-|
E:------------|------------|------------|------------|------------|
  G            Am    G      Em           Am           G
e:3-----------|0-----3-----|------------|0-----------|3-----------|
B:0-----------|1-----0-----|0-----------|1-----------|0-----------|
G:0-----------|2-----0-----|0-----------|2-----------|0-----------|
D:------------|------------|2-----------|------------|------------|
A:------------|0-----------|------------|0-----------|------------|
E:3-----------|------3-----|0-----------|------------|3-----------|


  
e:------------|
B:------------|
G:------------|
D:7-----7-----|
A:------------|
E:------------|
  Am
e:0-----------|
B:1-----------|
G:2-----------|
D:------------|
A:0-----------|
E:------------|


Comments