King Crimson - Epitaph Chords & Tabs

 

Epitaph Chords & Tabs

King Crimson Chords & Tabs

Version: 2 Type: Tab 0 ratings
1 star 2 stars 3 stars 4 stars 5 stars
comments

Epitaph Tab

   
#----------------------------------PLEASE NOTE---------------------------------#
#This file is the author's own work and represents their interpretation of the #
#song. You may only use this file for private study, scholarship, or research. #
#------------------------------------------------------------------------------##

Subject: King Crimson: Epitaph CRD & TAB
Date: 14 Dec 1992 16:35:03 GMT
Organization: Sun Microsystems, Inc.  Mt. View, Ca.
Lines: 61
Message-ID: 
Reply-To: warlock@halloween.EBay.Sun.COM (Dennis Montgomery)
NNTP-Posting-Host: halloween.ebay.sun.com



********************************************************************************
King Crimson : Epitaphtranscription by Dennis Montgomery
 warlock@halloween.EBay.Sun.COM

NOTES: 1) I'm pretty sure it's called an 'F#m+(Add B)'...it's a thoroughly Fripp chord
       2) Let the notes of the guit-arpeggios ring out as long as possible
       3) Try the guit-arpeggios on a 12 string if possible :) 

First the chords:
[ Tab from: http://www.guitartabs.cc/tabs/k/king_crimson/epitaph_tab_ver_2.html ]
  Em  F#m+(Add B) Am  B+  B  Bm C
  0      x        0   x   2  2  x
  0      0        1   4   4  3  1
  0      2        2   0   4  4  0
  2      0        2   1   4  4  2
  2      2        0   2   2  2  3
  0      2        x   x   x  x  x



This acoustic guitar arpeggio also appears at the songs beginning...

|---------------|---------------|---------------|---------------|---------------
|---------------|---------------|---------------|---------------|---1-0-1-0-1---
|-----0---0-----|-----0---0-----|-----2---2-----|---1-----2-----|---------------
|---2---2---2---|---2---2---2---|---0---0---0---|-----0-----0---|-2-----------2-
|-2-----------2-|-2-------------|-2-----------2-|-2-----2-----0-0---------------
0---------------0-------------0-2---------------2---------------|---------------

|---------------|---------------|---------------|
|---1-0-1-0-1---|-----0-4-0-----|-------4-------|
|---------------|---0-------0---|-----4---4-----|
|-2-----------2-|-1-----------1-|-1-4-------4-1-|
0---------------2---------------2---------------|
|---------------|---------------|---------------|


Comments