King Cobb Steelie - Below The Stars Chords & Tabs

 

Below The Stars Chords & Tabs

King Cobb Steelie Chords & Tabs

Version: 1 Type: Bass Tab 0 ratings
1 star 2 stars 3 stars 4 stars 5 stars
comments

Below The Stars Bass Tab

   
Song: Below The Stars
Artist: King Cobb Steelie
Tabbed by: Rob Miller (arcane@sk.sympatico.ca)
http://www.basstabarchive.com/

A fairly simple bass-riff to this song, besides some solos in certain
parts.  It sounds pretty cool, though, and the song has a very haunting
feel to it.  The song is the MAIN RIFF repeating, then RIFF A four 
times, then a DJ/drum solo (no bass), then the MAIN RIFF.  
Listen to the song for the timing.

[ Tab from: http://www.guitartabs.cc/tabs/k/king_cobb_steelie/below_the_stars_btab.html ]
MAIN RIFF (played throughout song):
G||---------------------------------------------------------
D||---------------------------------------------------------
A||----3-3\2-----------3-3-------3-3\2-----------3-3--------
E||----------222222/3-----33333--------222222/3------33333--

The slides up & down are very quick, and aren't really pronounced.
Like I said, they're really quick.  Though a slide sounds good for 
the first of these, a bend sounds as good, if not better, in place
of the second slide.

RIFF A:
G||-----------------------------
D||----------444---4-----444----  X 4
A||---3---------3---3-4-----3-2-  
E||-----3-2---------------------

After the DJ/drum solo, go back to the MAIN RIFF.

Enjoy!

Comments