King Carole - Youve Got A Friend Chords & Tabs

 

Youve Got A Friend Chords & Tabs

King Carole Chords & Tabs

Version: 1 Type: Tab 0 ratings
1 star 2 stars 3 stars 4 stars 5 stars
comments

Youve Got A Friend Tab

   
#-----------------------PLEASE NOTE---------------------------#
# This file is the author's own work and represents their     #
# interpretation of the song. You may only use this file for  #
# private study, scholarship, or research.                    #
#-------------------------------------------------------------#


YOU'VE GOT A FRIEND  

by Carole King
Album: Tapestry
(c) 1971

[Capo II]

------
INTRO:
------

   G             CaddG       Gsus4/D   D7sus4    G           F#m     Em/B B7
e:-----3-----------|---3-------3-----|-3---3----3-----3---|---------0-------|
B:---------0---0-1-|-------1-------1-|-0h1-0----0---------|-----2--------4--|
G:---0---0---2-----|-----0-------0---|-2------2-0---0-----|---2---2---0----2|
D:-----------------|---------0-------|--------------------|-----------------|
A:-----------------|-3---------------|--------------------|---------2----2--|
E:-3---------------|-----------------|------------3-----3-|-2---------------|
                                               
------
VERSE:
------

   Em                B7                Em    B7          Em7
e:-----------------|-----------------|-----------------|-----------------|
B:-------0---------|-----------0-----|-----0-------0---|-------3---------|
G:-----0-----0-----|-----2---2-------|-----------2---2-|-----0-----0---0-|
D:---2-----2-------|---1---1-------1-|---2-----1-------|---2---------2---|
A:-------------2---|-2-----------2---|-------2---------|-----------------|
E:-0---------------|-----------------|-0---------------|-0---------------|
  
   
   Am7               D7sus4            G         Gsus4     G
e:-----0-----0-----|-----3-----3-----|-------3-------3-|---------3---3------|
B:-----1-----1-----|-----1-----1-----|---0-------1-----|-1p0---------1-0----|
G:-------------0---|---2-----2---2---|-----------------|-----0-----0-----0--|
D:---2-----2-----2-|-0-----0-------0-|-----------------|--------------------|
A:-0-----0---------|-----------------|-----------------|--------------------|
E:-----------------|-----------------|-3---------------|--------------------|
      
   
   F#m               B7                Em    B7          Em7
e:-----------------|-----------------|-----------------|-----------------|
B:-------2---------|-----------0-----|-----0-------0---|-------3---------|
G:-----2-----2-----|-----2---2-------|-----------2---2-|-----0-----0---0-|
D:---4-----4-------|---1---1-------1-|---2-----1-------|---2---------2---|
A:-------------4---|-2-----------2---|-------2---------|-----------------|
E:-2---------------|-----------------|-0---------------|-0---------------|
   

   Am7                   Gmaj7/B           D7sus4
e:-----0---------------|-----------2-----|-----3-----------|----------------|
B:-----1-------1-------|-----3---3-------|-----1-----1-----|---1---1---0----|
G:-------------0-----0-|-----0---0---0---|---2-----2-----2-|---------------2|
D:---2-----0h2---------|---0-----------0-|-0-----0---------|-0--------------|
A:-0-----0---------0---|-2-----2---------|-----------------|-----3---2---0--|
E:---------------------|-----------------|-----------------|----------------|


Chorus:
   
   G                 Gmaj7             c                 Am7
e:-----------3-----|-------2---------|-------0---------|-----0-----3-----|
B:-------0---------|-----0---------0-|-----1-------1---|-----1-----1-----|
G:-----0-----------|---0---------0---|---0-------0---0-|-----------------|
D:---0-------------|-----------------|-----------------|---2-----2-------|
A:-----------------|-----------------|-3---------------|-0-----0---------|
E:-3---------------|-3---------------|-----------------|-----------------|
[ Tab from: http://www.guitartabs.cc/tabs/k/king_carole/youve_got_a_friend_tab.html ]
   
   G6            Gmaj7                 D7sus4
e:-----0---------2-|---------------|-----3---3---3---3-----3-|---3---3------|
B:-----------0-----|-----0-----0---|---1-0h1-0h1-0h1-0-----1-|-0-1-----1----|
G:---0-----0-------|---0-----0---0-|---2-2---2---2-------2-2-|---2-------2--|
D:-----------------|---------------|-0-----------------------|-----0-------0|
A:-----------------|---------------|-------------------------|--------------|
E:-3---------------|-3-------------|-------------------------|--------------|

   
   G                 Gmaj7             c
e:-----3-----------|---2-2---2-2-----|-------0---------|
B:-----0-----0-----|---0-0---0-0-----|-----1-------1---|
G:---0-----0-------|---------------0-|---0-------0---0-|
D:---------------0-|-----------------|-----------------|
A:-----------------|-----------------|-3---------------|
E:-3---------------|-3-----3---------|-----------------



   Am7                               Cmaj7   Bm7       C/D D7sus4
e:---------------------------------|-----0-------2---|-0---3-----------|
B:---------------------------------|-----0-------3---|-1---1-----------|
G:-----9---------------------------|-----0-------2---|-0---2-----------|
D:-5/7-----7\5---------5---7p5-----|-----------------|-0---0-----------|
A:-------------5---5h7---------7---|-3-------2-------|-----------------|
E:---------------------------------|-----------------|-----------------|

-------
BRIDGE:
-------

   c       F             c                         G
e:-----0-----------1---|-----0-------------------|-----3-------3-----------|
B:---1---------1-------|---1-------------1p0-----|---------0h1-----1p0-----|
G:-0-----0-0h2-------2-|-0-----0-----0-------0---|---0---0-------------0---|
D:---------3-----------|---------0h2-------------|-------------------------|
A:-3-------------------|-3-----------------------|-------------------------|
E:---------------------|-------------------------|-3-----------------------|


         Gmaj7       c                 Fmaj7                 Em7
e:-------2---------|-------0---------|-----0---------0-----|----------------|
B:---0-------0-----|-----1-----1-----|-------------------1-|-------3-------3|
G:-----0---0---0---|---------0---0-0-|-0h2---------2-------|-----0-----0----|
D:-----------------|-----------------|---------------------|---2---------2--|
A:-----------------|-3---------------|---------------------|----------------|
E:-3---------------|-----------------|-1---------1-----1---|-0-------0------|
     
   
   A7    A9    A7    D7sus4            D7
e:-----------------|-3-----3---------|-2---------------|
B:---2h4-2-----4---|-1-----1---------|-1---------------|
G:---2---2-----2---|-2-----2---------|-2---------------|
D:---4---4-----4---|-0-----0---------|-0---------------|
A:-0---------------|-----------------|-----------------|
E:-----------------|-----------------|-----------------|(to chorus)
   
   G             CaddG                 D7sus4    G
e:-----3-----------|---3-------------|-3---3-----3-------3-|
B:---------0---0-1-|-------1-----1---|-0h1-0-----0-----0---|
G:-----------2-----|-----0-----0---0-|-2-------2-0---0-----|
D:-----------------|-----------------|---------------------|
A:-----------------|-3-------3-------|---------------------|
E:-3---------------|-----------------|-------------3-------|

 
   c                 D7sus4    G           c                 D7sus4    G
e:------0---------|3---3-----3-------3-|------0---------|3---3-----3-------3|
B:----1-------1---|0h1-0-----0-----0---|----1-------1---|0h1-0-----0-----0--|
G:--0-------------|2---2---2-0---0-----|--0-------------|2---2---2-0---0----|
D:----------------|--------------------|----------------|-------------------|
A:3-------3-------|--------------------|3-------3-------|-------------------|
E:----------------|------------3-------|----------------|------------3------|

        
   c                 D7sus4
e:-------0---------|-3---3-----3---------|
B:-----1---1-------|-0h1-0-----0---------|
G:---0-------------|-2---2---2-0---------|
D:-----------------|---------------------|
A:-3-----------3---|---------------------|
E:-----------------|-----------3---------|



CHORDS:

Gmaj73x0002
D7sus4xx0213
D7xx0212
B7x23202 or x24242
CaddGx32013
Cmaj7x32000
Fmaj7103210
Em7022030
Gsus43x0013
Gsus4/Dxx0013
G6320000
Comments