King B B - 3 O'clock Blues Chords & Tabs

 

3 O'clock Blues Chords & Tabs

King B B Chords & Tabs

Version: 1 Type: Tab 1 rating
1 star 2 stars 3 stars 4 stars 5 stars
comments

3 O'clock Blues Tab

#----------------------------------PLEASE NOTE---------------------------------#
#This file is the author's own work and represents their interpretation of the #
#song. You may only use this file for private study, scholarship, or research. #
#------------------------------------------------------------------------------#
From: mklem@vax2.winona.msus.edu
Subject: TAB:  3 O'Clock Blues - B.B. King


        In hopes of bringing the blues back:

        Here's an old B.B. King classic, Three O'Clock Blues.

-------7--9b11---7/\/\/\/\--5---------------------------17-14----------------
---7-9------------------------7--------------------------------17-15---------
--------------------------------9---7b-------------------------------16--16--
-------------------------------------------9/\/\/\/\-------------------------
-----------------------------------------------------------------------------
-----------------------------------------------------------------------------

-----------------------------------------------------------------------------
----17---15b16---------------------------------------------------------------
-----------------------------------------------------------------------------
-----------------------------------------------------------------------------
-----------------------------------------------------------------------------
-----------------------------------------------------------------------------


-----------------------------------------------------------------------------
--12/\/\/\-15-12/\/\/\/-14---17b19r17p15-----------------15------------------
-----------------------------------------16----16-16----------16-------------
--------------------------------------------16-------------------------------
-----------------------------------------------------------------------------
-----------------------------------------------------------------------------

-----------------------------------------------------------------------------
--14b15--15-12-12/\/\/\/-12------12/\/\/----------14b16--14-12-12/\/\/-14----
-----------------------------------------------------------------------------
-----------------------------------------------------------------------------
-----------------------------------------------------------------------------
-----------------------------------------------------------------------------

-----------------------------------------------------------------------------
----12/\/\/\/\/\-------------14b16--14---12---12/\/\/\/\/------12/\/\/\/\/\--
-------------------13--------------------------------------------------------
-----------------------------------------------------------------------------
-----------------------------------------------------------------------------
-----------------------------------------------------------------------------



-----------------------------------------------------14b17--14-12------------
----------15--17--17b19---15b17--16----------14b16-----------------15p12-----
---16/\/\---------------------------16/\/\/\-----------------------------13--
-----------------------------------------------------------------------------
-----------------------------------------------------------------------------
-----------------------------------------------------------------------------


----------------------------------12b14--12----------------------------------
---12--14b16----12/\/\/\---15b16-------------16b17-(17)--(17)--15b-----------
-------------------------------------------------------------------16-16/\/\-
-----------------------------------------------------------------------------
-----------------------------------------------------------------------------
-----------------------------------------------------------------------------

.

-----------------------------------------------------------------------------
----15b17-15------------------------------------------18--15-----------------
-------------16-16/\/-----------------------------------------16-16-----18b20
---------------------------18--16--16--16--16------------------------16------
-----------------------------------------------18----------------------------
-----------------------------------------------------------------------------

----------14b17--14--12------------------------------------------------------
-------------------------15p12-----------------------------------------------
----16---------------------------------------------------------------12/\12/\
-----------------------------------------------------------------------------
-----------------------------------------------------------------------------
-----------------------------------------------------------------------------
                                 

-----------------------------------------------------------------------------
---12/\/\/\----------------------------------------------------------12------
-----------------------------------------------------------------------------
-----------------------------------------------------------------------------
-----------------------------------------------------------------------------
-----------------------------------------------------------------------------
            


-----------------------------------------------------------------------------
----14b15r14p12-------12b14-------------------------------12/\/\/\/\/\/\/\/--
-----------------13----------------------------------------------------------
-----------------------------------------------------------------------------
-----------------------------------------------------------------------------
-----------------------------------------------------------------------------
                         


Guitar Solo I:
----------------------------------------------12---------12------------------
----14b16---12/\/\------12/\/\--14-----15b16------15b16------15-12--12/\/\/\-
-----------------------------------------------------------------------------
-----------------------------------------------------------------------------
-----------------------------------------------------------------------------
-----------------------------------------------------------------------------
[ Tab from: http://www.guitartabs.cc/tabs/k/king_b_b/3_oclock_blues_tab.html ]
--------------------14b17--14-17-14--12------------------------12------------
-----15b17-----12------------------------15p12-----12--15b16-------17b19r17--
------------------------------------------------13---------------------------
-----------------------------------------------------------------------------
-----------------------------------------------------------------------------
-----------------------------------------------------------------------------

-------------------12----------------------------19/\/\/\--19\---------------
--------14b15b16-------14b15-12/\/\/\----12--14------------19\---14b16--(16)-
----16--------------------------------13-------------------------------------
-----------------------------------------------------------------------------
-----------------------------------------------------------------------------
-----------------------------------------------------------------------------

---12---------------------------------------12-12--------5/6/7--7/\/\/\------
-------17b19------17b19b17-------15b17--15--12-12--14b16-----------------7---
--------------16------------16-----------------------------------------------
-----------------------------------------------------------------------------
-----------------------------------------------------------------------------
-----------------------------------------------------------------------------

-----------------------------7---7--7\8-10/11-12/11--------------------------
---------------------------7---7--7-----------------12-12/\/\/\----17b19-----
---9p7-----7/8/9/8-----------------------------------------------------------
--------9-----------9--------------------------------------------------------
----------------------9------------------------------------------------------
-----------------------------------------------------------------------------

------------------------------------12--12b14--12----------------------------
--------------------------------15----------------12--12/\/\/\---15-14-----12
---17p15----------------------------------------------------------------15---
----------16--16/\/\--14h16p14-----------------------------------------------
-----------------------------------------------------------------------------
-----------------------------------------------------------------------------

-----------------------------------------------------------------------------
---12/\/\/\/\/\--12--15b16---------------------------------------------------
-----------------------------------------------------------------------------
-----------------------------------------------------------------------------
-----------------------------------------------------------------------------
-----------------------------------------------------------------------------


Guitar Solo II:

--------------------------------------12--12--11-----------------------------
---14b16--14--12--12/\/\/-14---16b17--------------12-12/\/\/\--14b16-14b16---
-----------------------------------------------------------------------------
-----------------------------------------------------------------------------
-----------------------------------------------------------------------------
-----------------------------------------------------------------------------

-----------17-14--------17-------------------12--12b14-----------------------
-----------------17b19------15--------14b16--------------12--14b15--14--12-12
---16--16----------------------16-16-----------------------------------------
-----------------------------------------------------------------------------
-----------------------------------------------------------------------------
-----------------------------------------------------------------------------

-------------------------------------------------14b17--14-12----------------
---12/\/\/\-----14b16--14--12h14p12-----12--14----------------15-12-12/\/\---
------------13----------------------13---------------------------------------
-----------------------------------------------------------------------------
-----------------------------------------------------------------------------
-----------------------------------------------------------------------------

---12b14--12--------------12-------------------------------------------------
--------------15p12----12-----14b16--12/\/\---15b16--------------------------
--------------------13-------------------------------9/11-9-7----------------
---------------------------------------------------------------9-9-9-9-9-9-9-
-----------------------------------------------------------------------------
-----------------------------------------------------------------------------

------------7----------------------------------------------------------------
----------7---10---9---7------------7----------------------------------------
------7h8--------8---9---8---6--------10-9-7---------------------------------
---9-----------------------9---6--------------11--9--7-9p7---7---------------
-----------------------------------------------------------9---9-7-9/\/\/\---
-----------------------------------------------------------------------------

------------------------------------------7---14b16-14-12--------------------
----------12--12/\/\/\/\/\--14b15r14------9----------------15p12-------------
---11/13----------------------------------7----------------------13----------
-----------------------------------------------------------------------------
-----------------------------------------------------------------------------
-----------------------------------------------------------------------------

--------------------------------7--------------------------------------------
---14b15r14p12----12----------7----10p7----9------7--------------------------
---------------13----13\---8-------------9-----9----7--6---------------------
-----------------------------------------------------------9---7h9p7----7----
-----------------------------------------------------------7---------9----9--
-----------------------------------------------------------------------------

------------------------------------
------------------------------7-----
------------------------------9-----
---7h9p7h9---7---7------------8-----
---------------9---9--7--9----9-----
------------------------------------


        "It's hard for me to believe that at 66 years old, that my audience
        would be as young as they are and to have as many people who seem
        to like me as they do today." -----B.B. King
Comments