King Albert - Oh Pretty Woman Chords & Tabs

 

Oh Pretty Woman Chords & Tabs

King Albert Chords & Tabs

Version: 1 Type: Tab 0 ratings
1 star 2 stars 3 stars 4 stars 5 stars
comments

Oh Pretty Woman Tab

#----------------------------------PLEASE NOTE---------------------------------#
#This file is the author's own work and represents their interpretation of the #
#song. You may only use this file for private study, scholarship, or research. #
#------------------------------------------------------------------------------#

Date: Mon, 17 Mar 1997 14:47:48 -0800
From: The Maestro 

Artist: Albert King
Title: Oh Pretty Woman
Album: Born Under a Bad Sign

I have not made any attempt to show the timing of the various parts, as
this would be way too difficult, but here is the main riff, all the fills
and solos, and the lyrics to this song, as well as I can figure them out.
Listen to the record for the timing because that is what makes this song so
great. The main riff has a funky pause in it, so listen especially for
that.

Guitar 1:

              10x               2x              2x                2x
-------||---------------||---------------||---------------||---------------|
|
-------||---------------||---------------||---------------||---------------|
|
-------||---3-3---------||---------------||---3-3---------||---------------|
|
---3-5-||-5-----5---3-5-||---1-1---------||-5-----5---3-5-||---3-3---------|
|
-5-----||---------5-----||-3-----3---1-3-||---------5-----||-5-----5---3-5-|
|
-------||---------------||---------3-----||---------------||---------5-----|
|


               8x               2x               2x               2x
-------||---------------||---------------||---------------||---------------|
|
-------||---------------||---------------||---------------||---------------|
|
-------||---3-3---------||---------------||---3-3---------||---------------|
|
-------||-5-----5---3-5-||---1-1---------||-5-----5---3-5-||---3-3---------|
|
-------||---------5-----||-3-----3---1-3-||---------5-----||-5-----5---3-5-|
|
-3-----||---------------||---------3-----||---------------||---------5-----|
|


               4x               2x              2x                2x
-------||---------------||---------------||---------------||---------------|
|
-------||---------------||---------------||---------------||---------------|
|
-------||---3-3---------||---------------||---3-3---------||---------------|
|
-------||-5-----5---3-5-||---1-1---------||-5-----5---3-5-||---3-3---------|
|
-------||---------5-----||-3-----3---1-3-||---------5-----||-5-----5---3-5-|
|
-3-----||---------------||---------3-----||---------------||---------5-----|
|

[ Tab from: http://www.guitartabs.cc/tabs/k/king_albert/oh_pretty_woman_tab.html ]
               8x             2x                2x                2x
-------||---------------||---------------||---------------||---------------|
|
-------||---------------||---------------||---------------||---------------|
|
-------||---3-3---------||---------------||---3-3---------||---------------|
|
----3-5||-5-----5---3-5-||---1-1---------||-5-----5---3-5-||---3-3---------|
|
---5---||---------5-----||-3-----3---1-3-||---------5-----||-5-----5---3-5-|
|
-3-----||---------------||---------3-----||---------------||---------5-----|
|


         repeat and fade
-------||---------------||
-------||---------------||
-------||---3-3---------||
-------||-5-----5---3-5-||
-------||---------5-----||
-3-----||---------------||


Guitar 2: (^indicates bend, / or \ indicate slide. There are some long
pauses not indicated by the tab. Remember, this is every lick he plays, not
just the "solo.")

----3-|-3-----------|-----6-----|-------------------------------|
------|---6---------|-8-8---8-8-|-----8-8--6-3------------8-6-8-|
-5^---|-----5-3-----|-----------|-5/7----------5-3----5/7-------|
------|---------5-5-|-----------|------------------5------------|
------|-------------|-----------|-------------------------------|
------|-------------|-----------|-------------------------------|

-7^-6^--3--3-------------------|-----6-----|--------------------------------
|
-------------6-----------------|-8-8---8-8-|-----8-8-8-6----------------8-6-
|
---------------5^-5-3----------|-----------|-5/7---------7-5^-5-3---5/7-----
|
----------------------5----5---|-----------|----------------------5---------
|
-----------------------------5-|-----------|--------------------------------
|
-------------------------------|-----------|--------------------------------
|

-----------------|---6-8^--8^-8^-6-----|-8^-----|-6^---6-----6-----6-|
-----8-----------|-8---------------8-8-|----8---|----8-----6---8-----|
-5/7---7-5-3-----|---------------------|--------|--------7-------7---|
-------------5---|---------------------|--------|--------------------|
---------------5-|---------------------|--------|--------------------|
-----------------|---------------------|--------|--------------------|

---6-8-7^-7^-7^-7^-8^-8^-8^-6-----|---------------------------|-----6-----|
-8----------------------------8-8-|-8-8\6-----------------8-8-|-8-8---8-8-|
----------------------------------|-------7-5-3-------5/7-----|-----------|
----------------------------------|-------------5-------------|-----------|
----------------------------------|---------------5-5---------|-----------|
----------------------------------|---------------------------|-----------|


---------------------------|-7^-6^---6-------------8^-|-8^-8^-6-------|
-----8-8-6-3-----------8-6-|-------8---8-6-----8-8----|---------8-8-6-|
-5/7---------5-3---5/7-----|---------------7-7--------|---------------|
-----------------5---------|--------------------------|---------------|
---------------------------|--------------------------|---------------|
---------------------------|--------------------------|---------------|

-8^-7^-6-6-----
-----------8-8-
--------------- etc. etc. etc.
---------------
---------------
---------------


Well, if you have any comments or corrections, please let me know.
-Eric Taylor.(cire@uclink3.berkeley.edu)
Comments