King Adora - Suffocate Chords & Tabs

 

Suffocate Chords & Tabs

King Adora Chords & Tabs

Version: 2 Type: Tab 0 ratings
1 star 2 stars 3 stars 4 stars 5 stars
comments

Suffocate Tab

Artist: King Adora
Titale: Suffocate
Album: Vibrate You
Tabbed By: Marie Walker -> blackenedskies@hotmail.com

heya :o) Any complaints or suggestions, feel free to e-mail me, to me it sounds right. If you haven't heard this band then get on to it, they rock ass ;o)

There are two guitars on this one. I couldn't get the chords yet (they're played by the second guitar), but i'm on it.

Guitar 1

E| ---------------------------------------------------------------------------------
B| -----0--0----0--2----0--0----0--2h3----2----3--2--------------------------
G| -----------2----------------2-----------------2--------2-----------------------
D| ---------------------------------------------------------------------------------
A| ---------------------------------------------------------------------------------
E| ----------------------------------------------------------------------------------

E| ----------------------------------------------------------------------------------
B| -----0--0----0--2----0--0----0--2h3----2--5--2--5-----------------------------
G| -----------2----------------2----------------------------------------------------
D| ----------------------------------------------------------------------------------
A| ----------------------------------------------------------------------------------
E| -----------------------------------------------------------------------------------


SOLO
E| ---------------------------------------------------------------------------------
B| -----0--0----0--2----0--0----0--2h3----2----3--2--------------------------
G| -----------2----------------2-----------------2--------2-----------------------
D| ---------------------------------------------------------------------------------
A| ---------------------------------------------------------------------------------
E| ----------------------------------------------------------------------------------
[ Tab from: http://www.guitartabs.cc/tabs/k/king_adora/suffocate_tab_ver_2.html ]
E| ----------------------------------------------------------------------------------
B| -----0--0----0--2----0--0----0--2h3----2--5---------------------------------
G| -----------2----------------2----------------------------------------------------
D| ----------------------------------------------------------------------------------
A| ----------------------------------------------------------------------------------
E| -----------------------------------------------------------------------------------


E| ------------------------------------------------------------------------------------
B| -----12--12p10h12--14----12--12p10h12--14/15--14--10--14h15p14--10
G| ------------------------------------------------------------------------------------
D| -----------------------------------------------------------------------------------
A| -----------------------------------------------------------------------------------
E| ------------------------------------------------------------------------------------

E| ------------------------------------------------------------------------------------
B| -----12--12p10h12--14----12--12p10h12--14/15--14--10--14h15p14--17
G| ------------------------------------------------------------------------------------
D| -----------------------------------------------------------------------------------
A| -----------------------------------------------------------------------------------
E| ------------------------------------------------------------------------------------

E| --------------------------------------------------------------------------------------------------------------------------------------
B| -----19--19p17h19--17--19--19p17h19--17--14h15p14--10--14h15--10--14h15--10--14h15--10--14h15--10/--
G| --------------------------------------------------------------------------------------------------------------------------------------
D| --------------------------------------------------------------------------------------------------------------------------------------
A| --------------------------------------------------------------------------------------------------------------------------------------
E| ---------------------------------------------------------------------------------------------------------------------------------------


Comments