King Adora - Suffocate Chords & Tabs

 

Suffocate Chords & Tabs

King Adora Chords & Tabs

Version: 1 Type: Tab 0 ratings
1 star 2 stars 3 stars 4 stars 5 stars
comments

Suffocate Tab

This is the tab for Suffocate by King Adora off the Vibrate You album.  If you have any
comments or suggestions about this tab feel free to email me at jon@sub-sonic.org.uk.
Also if you want the tabs to any more King Adora songs feel free to email a request and
I will do my best.  Happy playing.



E| -----------------|----------------|------------------| 
B| -----------------|----------------|------------------|
G| ----------6------|-------66-7-6---|-6--7--6----------|
D| 9---7-9-7----9---|9-7-9---------7-|------------7-----|
A| -----------------|----------------|------------------|
E| -----------------|----------------|------------------|

E| -----------------|----------------|------------------|-----------------|-----------------|
B| -----------------|----------------|------------------|12-14-12-14-12-14|--14b--12b-------|
G| ----------6------|-------66-7-6---|-6--7--6----9-----|-----------------|-----------------|
D| 9---7-9-7-----9--|9-7-9---------7-|------------------|-----------------|-----------------|
A| -----------------|----------------|------------------|-----------------|-----------------|
E| -----------------|----------------|------------------|-----------------|-----------------|

E| -----------------|-----------------|-----------------|-----------------|-----------------| 
B| -----------------|-----------------|-----------------|-----------------|-----------------|
G| -----------------|-----------------|-----------------|-33-333-333-33---|-----------------|
D| -99-999-999-99---|-55-555-555-55---|-99-999-999-99---|-33-333-333-33---|-33-333-333-33---|
A| -99-999-999-99---|-55-555-555-55---|-99-999-999-99---|-55-555-555-55---|-33-333-333-33---|
E| -77-777-777-7700-|-33-333-333-3300-|-77-777-777-7700-|--------------00-|-55-555-555-5500-|

E| -----------------|-----------------|-----------------|-----------------|
B| -----------------|-----------------|-----------------|-----------------|
G| -----------------|5-5-55-55--------|-----------------|5-5-55-55--------|
D| 9-9-99-99-5555-55|5-5-55-55-5555-55|9-9-99-99-5555-55|5-5-55-55-5555-55|
A| 9-9-99-99-5555-55|3-3-33-33-5555-55|9-9-99-99-5555-55|3-3-33-33-5555-55|
E| 7-7-77-77-3333-33|----------3333-33|7-7-77-77-3333-33|----------3333-33|

E| -----------------|-----------------|-----------------|-----------------|
B| -----------------|-----------------|-----------------|-----------------|
G| -----------------|5-5-55-55--------|-----------------|5-5-55-55--------|
D| 9-9-99-99-5555-55|5-5-55-55-5555-55|9-9-99-99-5555-55|5-5-55-55-5555-55|
A| 9-9-99-99-5555-55|3-3-33-33-5555-55|9-9-99-99-5555-55|3-3-33-33-5555-55|
E| 7-7-77-77-3333-33|----------3333-33|7-7-77-77-3333-33|----------3333-33|

E| -----------------|----------------|------------------| 
B| -----------------|----------------|------------------|
G| ----------6------|-------66-7-6---|-6--7--6----------|
D| 9---7-9-7----9---|9-7-9---------7-|------------7-----|
A| -----------------|----------------|------------------|
E| -----------------|----------------|------------------|

E| -----------------|----------------|------------------| 
B| -----------------|----------------|------------------|
G| ----------6------|-------66-7-6---|-6--7--6----9b-----|
D| 9---7-9-7-----9--|9-7-9---------7-|------------------|
A| -----------------|----------------|------------------|
E| -----------------|----------------|------------------|

E| -----------------|-----------------|-----------------|
A| 12-12-10-12-14-12|12-10-12-14--14b-|--10--14--14b-10-|
D| -----------------|-----------------|-----------------|
G| -----------------|-----------------|-----------------|
B| -----------------|-----------------|-----------------|
E| -----------------|-----------------|-----------------|
[ Tab from: http://www.guitartabs.cc/tabs/k/king_adora/suffocate_tab.html ]
E| -----------------|-----------------|--------------12b|
A| 12-12-10-12-14-12|12-10-12-14--14b-|--10--14--14b----|
D| -----------------|-----------------|-----------------|
G| -----------------|-----------------|-----------------|
B| -----------------|-----------------|-----------------|
E| -----------------|-----------------|-----------------|


E| 14-14-14-12-14-12|-14-12-10b-9-10b-|---7h10----7h10--|---7h10----------|
A| -----------------|-----------------|-7-------7-------|-7-------7-------|
D| -----------------|-----------------|-----------------|-----------------|
G| -----------------|-----------------|-----------------|-----------------|
B| -----------------|-----------------|-----------------|-----------------|
E| -----------------|-----------------|-----------------|-----------------|

E| -----------------|-----------------|-----------------|-----------------|
B| -----------------|-----------------|-----------------|-----------------|
G| -----------------|5-5-55-55--------|-----------------|5-5-55-55--------|
D| 9-9-99-99-5555-55|5-5-55-55-5555-55|9-9-99-99-5555-55|5-5-55-55-5555-55|
A| 9-9-99-99-5555-55|3-3-33-33-5555-55|9-9-99-99-5555-55|3-3-33-33-5555-55|
E| 7-7-77-77-3333-33|----------3333-33|7-7-77-77-3333-33|----------3333-33|

E| -----------------|-----------------|-----------------| 
B| -----------------|-----------------|-----------------| 
G| -----------------|55555555---------|-----------------| 
D| 99999999-55555555|55555555-55555555|9----------------|
A| 99999999-55555555|33333333-55555555|9----------------|
E| 77777777-33333333|---------33333333|7----------------|



Well that’s it, the timing may not be perfect but I’ve seen King Adora play live 
many times and this is how it is played.  There are two guitars used to play 
this song usually but ive only tabed the main riffs.  At the end of the intro 
I’ve added a bit that is played by the 2nd guitar because I think it sounds better 
if you are playing on your own but if there are two of you playing here is the 
intro separated.  I think the guitar parts for the Guitar 2 are right but there may
be one or two small errors.

Guitar 1
E| -----------------|----------------|------------------| 
B| -----------------|----------------|------------------|
G| ----------6------|-------66-7-6---|-6--7--6----------|
D| 9---7-9-7----9---|9-7-9---------7-|------------7-----|
A| -----------------|----------------|------------------|
E| -----------------|----------------|------------------|

E| -----------------|----------------|------------------| 
B| -----------------|----------------|------------------|
G| ----------6------|-------66-7-6---|-6--7--6----9b----|
D| 9---7-9-7-----9--|9-7-9---------7-|------------------|
A| -----------------|----------------|------------------|
E| -----------------|----------------|------------------|

Guitar 2
E| -----------------|----------------|------------------| 
B| -----------------|----------------|------------------|
G| -----------11----|---11---------11|--11-11------11---|
D| --------9--------|9-----------9---|-9--9-------9-----|
A| -----------------|----------------|------------------|
E| -----------------|----------------|------------------|

E| -----------------|----------------|------------------|-----------------|-----------------|
B| -----------------|----------------|------------------|12-14-12-14-12-14|--14b--12b-------|
G| -----------11----|---11---------11|--11-11------11---|-----------------|--------------11-|
D| --------9--------|9-----------9---|-9--9-------9-----|-----------------|------------9----|
A| -----------------|----------------|------------------|-----------------|-----------------|
E| -----------------|----------------|------------------|-----------------|-----------------|
Comments