King Adora - Scream And Shout Chords & Tabs

 

Scream And Shout Chords & Tabs

King Adora Chords & Tabs

Version: 1 Type: Tab 0 ratings
1 star 2 stars 3 stars 4 stars 5 stars
comments

Scream And Shout Tab

cream and Shout




Intro: Ok this is played with effects that I don't have so I just play it with a bit of wah wah, sounds good enough


e  ----------------------------------------------------------------------------------
B -----------------------------------------------------------------------------------
G ----------------9-9-7-7-7-7-7-7-------------------------------------------------
D --9-9-9-9-9-9--------------------7-7--------------9-9 7-7-7-7-7-7-7-7-------
A ---------------------------------------9-9-9-9-9-9-------------------------------
E -----------------------------------------------------------------------------------



Crank up the distortion then :



e  ----------------------------------------------------------------------------
B ----------------------------------------------------------------------------
G ---------------9---7-7-7-7-7---------------------4-----------------------
D -9-9-9-9-9---9---7-7-7-7-7---7---4-4-4-4-4---4--7-7-7-7-7---------
A -9-9-9-9-9---7---5-5-5-5-5---7---4-4-4-4-4---2--7-7-7-7-7---------
E -7-7-7-7-7---------------------5---2-2-2-2-2-------5-5-5-5-5---------


[ Tab from: http://www.guitartabs.cc/tabs/k/king_adora/scream_and_shout_tab.html ]
Verse: The 1st part is mainly bass but if you're just playing yourself palm muting  these power chords don't ruin it or anything


               let it ring                PM -----------------------------------------------------------------------


e  ------------------------------------------------------------------------------------------------------------------------
B -------------------------------------------------------------------------------------------------------------------------
G -------------------------------------------------------------------------------------------------------------------------
D --7-/-9~---------------------\-5-5-5---5-5-5---5-5-5---5-5-5---/-7-7-7---7-7-7---7-7-7---7-7-7-------
A --7-/-9~---------------------\-5-5-5---5-5-5---5-5-5---5-5-5---/-7-7-7---7-7-7---7-7-7---7-7-7-------
E --5-/-7~---------------------\-3-3-3---3-3-3---3-3-3---3-3-3---/-5-5-5---5-5-5---5-5-5---5-5-5-------


  PM --------------------- - - - -  -  -   -   < lightly let off the palm muting in rhythm


e ------------------------------------------\-0-0-0-0-0---------
B ------------------------------------------\-0-0-0-0-0--------      
Comments