King Adora - Dont Trust The Ones You Love Chords & Tabs

 

Dont Trust The Ones You Love Chords & Tabs

King Adora Chords & Tabs

Version: 1 Type: Tab 0 ratings
1 star 2 stars 3 stars 4 stars 5 stars
comments

Dont Trust The Ones You Love Tab

   
Don't Trust The Ones You Love
Tabbed by Rob Cooper
www.freespeech.org/kingadora

Intro
                             
e------------------------|
B------------------------|
G-----11----9----9-------|
D-----11----9----9-------|   x4
A--------11---11---11----|
E------------------------|


Verse 1 (lyrics are best guesses)

C#m  F#   B             E
I    am   nothing but a prostitute
C#m  F#      B      E
My   love is (?)
C#m  F#   B             E
My motivation is my empathy
C#m  F#   B
Just (?)

Chorus
[ Tab from: http://www.guitartabs.cc/tabs/k/king_adora/dont_trust_the_ones_you_love_tab.html ]
C#m       A
Degrade myself again
E            B
Say nothing, feel nothing
C#m      A
I hate myself again
B          E         Emaj7    C#m
Don't ever trust the ones you love

e------------------------|
B------------------------|
G-----11----9----9-------|
D-----11----9----9-------|   x2
A--------11---11---11----|
E------------------------|


Verse 2 (same chords)

Chorus repeat

Solo (over verse chords)

End

C#m       A
Degrade myself again
C#m       A
Degrade myself again
C#m       A
Degrade myself again

C#m   Eb   E   F#

    nu    
e---14-12-14-12-14-9---|
b------------------9---|

n=bend up
u=bend down
Comments