King Adora - Big Isnt Beautiful Chords & Tabs

 

Big Isnt Beautiful Chords & Tabs

King Adora Chords & Tabs

Version: 1 Type: Bass Tab 0 ratings
1 star 2 stars 3 stars 4 stars 5 stars
comments

Big Isnt Beautiful Bass Tab

artist- King Adora
song- big isn't beautiful

G-----------------------------------|
d-----------------------------------|
A---------2-2-2-2-3-3-3-3-0-0-0-0---| reapet
E-3-3-3-3---------------------------|
[ Tab from: http://www.guitartabs.cc/tabs/k/king_adora/big_isnt_beautiful_btab.html ]
G----------------------------------------------------------|
d----------------------------------------------------------| reapet
A-3-3-3-3-5-5-5-5---------3-3-3-3-3-3-3-3-5-5-5-5-2-2-2-2--|
E-----------------3-3-3-3----------------------------------|

G----------------------------------------------------------|
D----------------------------------------------------------|
A-3-3-3-3-5-5-5-5---------3-3-3-3-6-6-6-6-8-8-8-8----------|  reapet 
E-----------------3-3-3-3----------------------------------|

Comments