Kinesis - The Flowers Are Dead Chords & Tabs

 

The Flowers Are Dead Chords & Tabs

Kinesis Chords & Tabs

Version: 1 Type: Tab 0 ratings
1 star 2 stars 3 stars 4 stars 5 stars
comments

The Flowers Are Dead Tab

Intro
E-----------------------------------------|---------------------------------|
B---8----------10-------11-------13-------|----10-------12-----13-------15--|
G--10^---------12^------13^------15^------|----12^------14^----15^------17^-|
D-----------------------------------------|---------------------------------|
A-----------------------------------------|---------------------------------|
E-----------------------------------------|---------------------------------|

[ Tab from: http://www.guitartabs.cc/tabs/k/kinesis/the_flowers_are_dead_tab.html ]
chrous 
E-----------|-----------|-----------|-----------|---------------------------------------
B-----------|-----------|-----------|-----------|---------------------------------------
G-----------|--7--7--7--|--3--3--3--|--5--5--5--|---------------------------------------
D-5--5--5---|--7--7--7--|--3--3--3--|--5--5--5--|---------------------------------------
A-5--5--5---|--5--5--5--|--1--1--1--|--3--3--3--|---------------------------------------
E-3--3--3---|-----------|-----------|-----------|---------------------------------------
Comments