Kind Of Like Spitting - Timber Chords & Tabs

 

Timber Chords & Tabs

Kind Of Like Spitting Chords & Tabs

Version: 1 Type: Tab 0 ratings
1 star 2 stars 3 stars 4 stars 5 stars
comments

Timber Tab

   
=======================================================================
"Timber" by Kind of Like Spitting
=======================================================================

Tabbed by: Your Friend, IcanPlayWell [Trent]
Email: icanplaymyguitar@yahoo.com 

+NOTES+
This is my second tab submitted to UG, as well as my second tab altogether. My first one
never made it onto the website, although it was very accurate.  Anyway...It's a pretty
easy song that sounds good.  I suggest you listen to the song to get the timing correct.
 Also, some parts of the song (mainly the chords) might be off a little, but it sounds
good.  So if you have any suggestions, my email address is at the top. Anywho...I hope
that whoever uses this (if anybody) enjoys it and finds it adequately accurate.

Tuning: Standard

Key:
/  slide up
\  slide down
h  hammer-on
p  pull-off
~  let ring


Intro:[0:00-0:25]
e|---------------------------------------------------|
B|--------------------------------4~-----------------|
G|--------------------------------3~---6----1~-------|
D|--------------------------------4~---7----2~-------|
A|-/7----------------------------------7----2~-------|
E|-----7--4\0~--0--2/4--7p0--2/4~----5---5--0~-------|

(cont'd)
e|-----------------4p0------|
B|---4---2~--0h2p0-----2p0--|
G|---5---3~-----------------|
D|---6---4~-----------------|
A|-6---5-4~-----------------|
E|--------------------------|

(cont'd)
e|---------------------------------------------------|
B|--------------------------------4~-----------------|
G|--------------------------------3~---6----1~-------|
D|--------------------------------4~---7----2~-------|
A|-/7----------------------------------7----2~-------|
E|-----7--4\0~--0--2/4--7p0--2/4~----5---5--0~-------|





Verse: [0:26-1:22]
"You're the same old bore..."
e|-4-4-4-44-4-4-4-44--2-2-2-22-2-2-2-22-----|
B|-4-4-4-44-4-4-4-44--2-2-2-22-2-2-2-22-----|
G|-4-4-4-44-4-4-4-44--3-3-3-33-3-3-3-33-----|
D|-6-6-6-66-6-6-6-66--4-4-4-44-4-4-4-44-----|
A|-6-6-6-66-6-6-6-66--4-4-4-44-4-4-4-44-----|
E|-4-4-4-44-4-4-4-44--2-2-2-22-2-2-2-22-----|

(cont'd)
e|-4-4-4-44-4-4-4-44------------------------|
B|-5-5-5-55-5-5-5-55--9-9-9-99-9-9-9-99-----|
G|-6-6-6-66-6-6-6-66--9-9-9-99-9-9-9-99-----|
D|-6-6-6-66-6-6-6-66--9-9-9-99-9-9-9-99-----|
A|-4-4-4-44-4-4-4-44--7-7-7-77-7-7-7-77-----|
E|------------------------------------------|
[Repeat Verse 4 times, then:]

Chorus: [1:23-2:16]
"And I'm so home sick..."
e|-4-4-4-44-4-4-4-44--7-7-7-77-7-7-7-77-----|
B|-4-4-4-44-4-4-4-44--7-7-7-77-7-7-7-77-----|
G|-4-4-4-44-4-4-4-44--8-8-8-88-8-8-8-88-----|
D|-6-6-6-66-6-6-6-66--9-9-9-99-9-9-9-99-----|
A|-6-6-6-66-6-6-6-66--9-9-9-99-9-9-9-99-----|
E|-4-4-4-44-4-4-4-44--7-7-7-77-7-7-7-77-----|

(cont'd)
e|-2-2-2-22-2-2-2-22--4-4-4----|
B|-2-2-2-22-2-2-2-22--5-5-5----|
G|-3-3-3-33-3-3-3-33--6-6-6----|
D|-4-4-4-44-4-4-4-44--6-6-6----|
A|-4-4-4-44-4-4-4-44--4-4-4----|
E|-2-2-2-22-2-2-2-22-----------|

Lead played over Chorus
e|------------------------------------------------|
B|------------------------------------------------|
G|-3---3---3---3---4-3------4-3-------------------|
D|---4---4---4---4-----4--------4-----------------|
A|-----------------------6~-------6-4-6-4--6--7---|
E|------------------------------------------------|
[ Tab from: http://www.guitartabs.cc/tabs/k/kind_of_like_spitting/timber_tab.html ]
Post-Chorus: [2:17-2:44]
"In the tortured eyes the freeway..."
e|-4-4-4-4-4-4-4-4--7-7-7-7-7-7-7-7--4-4-4-4-4-4-4-4------------------|
B|-4-4-4-4-4-4-4-4--7-7-7-7-7-7-7-7--5-5-5-5-5-5-5-5--9-9-9-9-9-9-9-9-|
G|-4-4-4-4-4-4-4-4--8-8-8-8-8-8-8-8--6-6-6-6-6-6-6-6--9-9-9-9-9-9-9-9-|
D|-6-6-6-6-6-6-6-6--9-9-9-9-9-9-9-9--6-6-6-6-6-6-6-6--9-9-9-9-9-9-9-9-|
A|-6-6-6-6-6-6-6-6--9-9-9-9-9-9-9-9--4-4-4-4-4-4-4-4--7-7-7-7-7-7-7-7-|
E|-4-4-4-4-4-4-4-4--7-7-7-7-7-7-7-7-----------------------------------|






2nd Verse: [2:45-3:39]
"Self-loathing isn't seck-see..."
e|-4-4-4-44-4-4-4-44--2-2-2-22-2-2-2-22-----|
B|-4-4-4-44-4-4-4-44--2-2-2-22-2-2-2-22-----|
G|-4-4-4-44-4-4-4-44--3-3-3-33-3-3-3-33-----|
D|-6-6-6-66-6-6-6-66--4-4-4-44-4-4-4-44-----|
A|-6-6-6-66-6-6-6-66--4-4-4-44-4-4-4-44-----|
E|-4-4-4-44-4-4-4-44--2-2-2-22-2-2-2-22-----|

(cont'd)
e|-4-4-4-44-4-4-4-44------------------------|
B|-5-5-5-55-5-5-5-55--9-9-9-99-9-9-9-99-----|
G|-6-6-6-66-6-6-6-66--9-9-9-99-9-9-9-99-----|
D|-6-6-6-66-6-6-6-66--9-9-9-99-9-9-9-99-----|
A|-4-4-4-44-4-4-4-44--7-7-7-77-7-7-7-77-----|
E|------------------------------------------|

Lead Part in 2nd Verse [3:31-3:33]
e|----------------------|
B|----------------------|
G|-3-4p3---4p3-3--------|
D|-4-----4--------------|
A|-4--------------------|
E|-2--------------------|

Pre-Chorus: [3:40-4:07]
"Me and her been stranger..."
e|-4-4-4-4-4-4-4-4--7-7-7-7-7-7-7-7--4-4-4-4-4-4-4-4------------------|
B|-4-4-4-4-4-4-4-4--7-7-7-7-7-7-7-7--5-5-5-5-5-5-5-5--9-9-9-9-9-9-9-9-|
G|-4-4-4-4-4-4-4-4--8-8-8-8-8-8-8-8--6-6-6-6-6-6-6-6--9-9-9-9-9-9-9-9-|
D|-6-6-6-6-6-6-6-6--9-9-9-9-9-9-9-9--6-6-6-6-6-6-6-6--9-9-9-9-9-9-9-9-|
A|-6-6-6-6-6-6-6-6--9-9-9-9-9-9-9-9--4-4-4-4-4-4-4-4--7-7-7-7-7-7-7-7-|
E|-4-4-4-4-4-4-4-4--7-7-7-7-7-7-7-7-----------------------------------|

Chorus: [4:08-5:06]
"And I'm so homesick..."
e|-4-4-4-4-4-4-4-4-----------------------|
B|-4-4-4-4-4-4-4-4--4-4-4-4-4-4-4-4------|
G|-4-4-4-4-4-4-4-4--4-4-4-4-4-4-4-4------|
D|-6-6-6-6-6-6-6-6--4-4-4-4-4-4-4-4------|
A|-6-6-6-6-6-6-6-6--6-6-6-6-6-6-6-6------|
E|-4-4-4-4-4-4-4-4--7-7-7-7-7-7-7-7------|

(cont'd)
e|-2-2-2-22-2-2-2-22--4-4-4----|
B|-2-2-2-22-2-2-2-22--5-5-5----|
G|-3-3-3-33-3-3-3-33--6-6-6----|
D|-4-4-4-44-4-4-4-44--6-6-6----|
A|-4-4-4-44-4-4-4-44--4-4-4----|
E|-2-2-2-22-2-2-2-22-----------|

Lead played over Chorus
e|------------------------------------------------|
B|------------------------------------------------|
G|-3---3---3---3---4-3------4-3-------------------|
D|---4---4---4---4-----4--------4-----------------|
A|-----------------------6~-------6-4-6-4--6--7---|
E|------------------------------------------------|

Well, there it is.  During some of the chords, he does certain picking patterns, so you
can just pick the notes of the chord to get an idea.  Also, I know that the second chord
in the first chorus is different from the second chord in the second chorus.  Either way,
they both sound good, so I'll let you decide which to use.  Towards the end of the second
chorus, there are other small licks thrown in, which I did not bother to tab out.  Sorry,
but I felt that people can pick those out on their own. 

Anyway...thanks for checking out my tab!

*** Please request my permission before copying this (for another ***
*** or whatever), but you don't need it for personal use.  This is ***
*** just because I believe this is the only tab for it so far. ***        ***Thanks!***
Comments