Kind Of Like Spitting - Motor Boat Chords & Tabs

 

Motor Boat Chords & Tabs

Kind Of Like Spitting Chords & Tabs

Version: 1 Type: Tab 0 ratings
1 star 2 stars 3 stars 4 stars 5 stars
comments

Motor Boat Tab

Kind of Like Spitting - Motor Boat

This is a great track off 'You secretly want me dead' which was originally an
instrumental ('Canoe') off the self-titled EP (which is now also available on Hush
Records' 'Mile: A Hush Compilation').  I've been playing this for a while but finally
decided to write it out and try and work out those parts at the end of each of the
chorus lines.  They're the only parts that I'm not completely sure about at the moment.
 It's a fun song to play, so enjoy.

Standard Tuning

Intro
|---0---------------------------------------------0-------------------------------------------
|---0---------------------------------------------0-------------------------------------------
|---4---------2---0-------0---------------0-------4-----------2---0-------0---------------0---
|---4-------4---4---4---0---0-4-----0-4-0---4---4-4-4-------4---4---4---0---0-4-----0-4-0---4-
|-2-2-2-4-5---------------------5-------------2---2---2-4-5---------------------5-------------
|---------------------3-----------3-----------------------------------3-----------3-----------


Verse (mix between these two riffs)
|---0-----------------------------------------
|---0-----------------------------------------
|---4---------2---0-------0---------------0---
|---4-------4---4---4---0---0-4-----0-4-0---4-
|-2-2-2-4-5---------------------5-------------
|---------------------3-----------3-----------

|---0-----------------------------------------
|---0-----------------------------------------
|---4---------2---0-------0-----------0-------
|---4-------4---4---4---0---0-4-----0---0-4---
|-2-2-2-4-5---------------------5-----------5-
|---------------------3-----------3-----------


After the line, "Cars side by side", play this once
|---0-----------------------------------------
|---0-----------------------------------------
|---4---------2---0-------0-----------0---0---
|---4-------4---4---4---0---0-4-----0---0---0-
|-2-2-2-4-5---------------------5-------------
|---------------------3-----------3-----------


Chorus 1
|-----------------------------------------------------------------------
|---8-------------------------------------------------------------------
|---9---6---6-6-6---6---6-6-6-4---4-4-4---7---7-7-7-6---6-6-6---2-----2-
|---x---7---7-7-7---7---7-7-7-5---5-5-5---9---9-9-9-7---7-7-7---0-----0-
|-7-7-9-7---7-7-7---7---7-7-7-5---5-5-5---9---9-9-9-7---7-7-7---0-----0-
|-------------------5---5-5-5-3---3-3-3---7---7-7-7-5---5-5-5-----------

|-----------------------------------------------------------------------------
|---8-------------------------------------------------------------------------
|---9---6---6-6-6---6---6-6-6-4---4-4-4---7---7-7-7-6---6-6-6---2p0-----------
|---x---7---7-7-7---7---7-7-7-5---5-5-5---9---9-9-9-7---7-7-7---0---4-2-0-2-0-
|-7-7-9-7---7-7-7---7---7-7-7-5---5-5-5---9---9-9-9-7---7-7-7---0---0-0-0-0-0-
|-------------------5---5-5-5-3---3-3-3---7---7-7-7-5---5-5-5-----------------

[ Tab from: http://www.guitartabs.cc/tabs/k/kind_of_like_spitting/motor_boat_tab.html ]
Verse (mix between these two riffs)
|---0-----------------------------------------
|---0-----------------------------------------
|---4---------2---0-------0---------------0---
|---4-------4---4---4---0---0-4-----0-4-0---4-
|-2-2-2-4-5---------------------5-------------
|---------------------3-----------3-----------

|---0-----------------------------------------
|---0-----------------------------------------
|---4---------2---0-------0-----------0-------
|---4-------4---4---4---0---0-4-----0---0-4---
|-2-2-2-4-5---------------------5-----------5-
|---------------------3-----------3-----------


After the line, "We've burnt down everyone", play this once
|---0-----------------------------------------
|---0-----------------------------------------
|---4---------2---0-------0-----------0---0---
|---4-------4---4---4---0---0-4-----0---0---0-
|-2-2-2-4-5---------------------5-------------
|---------------------3-----------3-----------

Chorus 2
--------------------------------------------------------------------------------
-----8--------------------------------------------------------------------------
---9-9---6---6-6-6---6---6-6-6-4---4-4-4---7---7-7-7-6---6-6-6---2------2p0-----
-----x---7---7-7-7---7---7-7-7-5---5-5-5---9---9-9-9-7---7-7-7---0------0---4h5-
-7---7-9-7---7-7-7---7---7-7-7-5---5-5-5---9---9-9-9-7---7-7-7---0--0-0-0---0---
---------------------5---5-5-5-3---3-3-3---7---7-7-7-5---5-5-5------------------

---------------------------------------------------------------------------------------
---8-----------------------------------------------------------------------------------
---9---6---6-6-6---6---6-6-6-4---4-4-4---7---7-7-7-6---6-6-6---2p0---------2p0---------
---x---7---7-7-7---7---7-7-7-5---5-5-5---9---9-9-9-7---7-7-7---0---4-5-4-5-0---4-5-4-5-
-7-7-9-7---7-7-7---7---7-7-7-5---5-5-5---9---9-9-9-7---7-7-7---0---0-0-0-0-0---0-0-0-0-
-------------------5---5-5-5-3---3-3-3---7---7-7-7-5---5-5-5---------------------------

---------------------------------------------------------------------------------------
---------------------------------------------------------------------------------------
-7---7-7-7-6---6-6-6---2----2p0-0-2p0-----2--7---7-7-7-6---6-6-6---2-------2p0-------2-
-9---9-9-9-7---7-7-7---0----0-----0---4-5-0--9---9-9-9-7---7-7-7---0---0-0-0---4-5-4-5-
-9---9-9-9-7---7-7-7---0----0-----0---0-0-0--9---9-9-9-7---7-7-7---0---0-0-0---0-0-0-0-
-7---7-7-7-5---5-5-5-------------------------7---7-7-7-5---5-5-5-----------------------

---0----------------|
---0----------------|
---4-4-4------------|
---4-4-4------------|
-2-2-2-2----5-------|
------------3-------|


Outro
|---0-----------------|-----0-0-----------------|----------------
|---0-----------------|-----0-0-----------------|----------------
|---4---------2---0---|-----4-----------2---0---|----------------
|---4-------4---4---4-|---4-4---------4---4---4-|--0-------------
|-2-2-2-4-5-----------|-2---2---2-4-5-----------|--x-------------
|---------------------|-------------------------|--3-------------
                                             x3

any questions? andrewbiles@hotmail.com
Comments