Kim Mitchell - Go For Soda Chords & Tabs

 

Go For Soda Chords & Tabs

Kim Mitchell Chords & Tabs

Version: 1 Type: Tab 0 ratings
1 star 2 stars 3 stars 4 stars 5 stars
comments

Go For Soda Tab

Intro:
                                                    fret hand mute
                                                    x x x x x x x x x
--1------1--------------------------------------------------------------|
--1h3p1--1-1-1----------------------------------------------------------|
-------3---3-2-----5-5-------5-5-5-5/8--8---3-3---------3---3---3-------|
---------------3/7-5-5h7p5---5-7-8-5/8--8---3-3-3h5p3---3---3---3---3---|
---------------------------8--------------------------6---4---3---1-----|
----------------------------------------------------------------------1-|

--
        --
Might as well go for a soda, 
        nobody hurts and nobody cries
Might as well go for a soda, 
        nobody drowns and nobody dies

Verse 1:
----------------------------------------------------------------|
----------------------------------------------------------------|
----------------1-1-1-1-1-1-1-1-----------------1-1-1-1-1-1-1-1-|
3-3-3-3-3-3-3-3-3-3-3-3-3-3-3-3-3-3-3-3-3-3-3-3-3-3-3-3-3-3-3-3-|
3-3-3-3-3-3-3-3-4-4-4-4-4-4-4-4-3-3-3-3-3-3-3-3-4-4-4-4-4-4-4-4-|
1-1-1-1-1-1-1-1-----------------1-1-1-1-1-1-1-1-----------------|
+ + + + + + + + + + + + + + + + + + + + + + + + + + + + + + + + 

--
              --
So we're in one of our blue moods, 
              you wanna have it your way and I want it mine.

--------------------------------------------------------------------|
--------------------------------------------------------------------|
----------------1-1-1-1-1-1-1-1-------------------------------------|
3-3-3-3-3-3-3-3-3-3-3-3-3-3-3-3----------3------1------1p0-1--------|
3-3-3-3-3-3-3-3-4-4-4-4-4-4-4-4-------------1-3----1-3------3p1-----|
1-1-1-1-1-1-1-1-----------------1--1h3p1------------------------4-1-|
+ + + + + + + + + + + + + + + + + + + + + + + + + + + + + + + + 

All this debating going round in our 
              blue mood makes me thirsty for love       MIGHT AS WELL



Chorus:                                             x x x
----------------------------------------------------------|
----------------------------------------------------------|
10-----0-3-5----5-0-5---8-8---3-3---------3---3---3-------|
8----3-0-3-5----5-0-5---8-8---3-3-3h5p3---3---3---3---3---|
8----3-0-1-3----3-0-3---6-6---1-1-------6---4---3---1-----|
-----1--------------------------------------------------1-|

Might as well go for a soda, nobody hurts and nobody cries. MIGHT AS WELL
Might as well go for a soda, nobody drowns and nobody dies"

Verse 2:
-----------------------------------------------------------------|
-----------------------------------------------------------------|
----------------1-1-1-1-1-1-1-1----------------------------------|
3-3-3-3-3-3-3-3-3-3-3-3-3-3-3-3-------3------1------1p0-1--------|
3-3-3-3-3-3-3-3-4-4-4-4-4-4-4-4----------1-3----1-3------3p1-----|
1-1-1-1-1-1-1-1-----------------1h3p1------------------------4-1-|
+ + + + + + + + + + + + + + + + + + + + + + + + + + + + + + + + 

Life seems to be a bomb inside your head 
       well the bomb in my head is love
All this debating going round in our blue mood
       makes me thirsty for love"       "MIGHT AS WELL

[ Tab from: http://www.guitartabs.cc/tabs/k/kim_mitchell/go_for_soda_tab.html ]
Chorus:
Might as well go for a soda, nobody hurts and nobody cries
Might as well go for a soda, nobody drowns and nobody dies
Might as well go for a soda, it's better than slander it's better than lies
Might as well go for a soda, nobody hurts and nobody cries
Might as well go for a soda

Solo (Guitar 2 plays verse 2)
 pm
 . .      . . 
---------------------------------------------------|
-----------------------------8b-----9b-b-b~--------|
-----10~------10~------8-8-10--10-8----------------|
-------------------8h10----------------------------|
-8-8------8-8--------------------------------------|
---------------------------------------------------|

---------------------------------------------------|
11-11-11-11b-9---------------8b-----9b-b-b~--------|
---------------10~-----8-8-10--10-8----------------|
-------------------8h10----------------------------|
---------------------------------------------------|
---------------------------------------------------|

---------------------------------------------------|
---------------------------------------------------|
-10-8--------------------------------10-8----------|
-10-8-10-10-8~------8h10p8---8-10\---10-8-10-10-8~-|
---------10----8-10--------10----------------10----|  
---------------------------------------------------|

Vocal Chorus:
Slap Guitar body
 x   x   x   x   x   x
-x---x---x---x---x---x-------------------------|
-x---x---x---x---x---x-------------------------|
-x---x---x---x---x---x---------3---3---3-------|
-x---x---x---x---x---x-3h5p3---3---3---3---3---|
-x---x---x---x---x---x-------6---4---3---1-----|
-x---x---x---x---x---x-----------------------1-|


Might as well go for a soda, nobody hurts and nobody cries
Might as well go for a soda, nobody drowns and nobody dies
Might as well go for a soda, it's better than slander it's better than lies
Might as well go for a soda, MIGHT AS WELL

Outro Chorus

13--------13------------------------------------------------------------------------------|
13h15p13--13-13-13-------12-12----------13-13-13-13/16-16-11-11-----------11--11--11------|
--------15---15-14-------11-11h13p11----12-14-15-12/15-15-10-10-10h12p10--10--10--10--10--|
-------------------15/18-------------14---------------------------------13--12--10--8-----|
----------------------------------------------------------------------------------------8-|
------------------------------------------------------------------------------------------|


Might as well go for a soda, oh yeah, nobody hurts, nobody cries-ies-ies
Might as well go for a soda, oh yeah, nobody drowns, nobody dies-ies-ies-ies
Might as well go for a soda, it's better than slander it's better than lies-ies-ies

Outro:

13--------13------------------------------------------------------------------------------|
13h15p13--13-13-13-------12-12----------13-13-13-13/16-16-11-11--8-8-3\-------------------|
--------15---15-14-------11-11h13p11----12-14-15-12/15-15-10-10--8-8-3\--5~---------------|
-------------------15/18-------------14----------------------------------5~---------------|
-------------------------------------------------------------------------3~---------------|
------------------------------------------------------------------------------------------|
Comments