Killswitch Engage - World Ablaze Chords & Tabs

 

World Ablaze Chords & Tabs

Killswitch Engage Chords & Tabs

Version: 1 Type: Bass Tab 0 ratings
1 star 2 stars 3 stars 4 stars 5 stars
comments

World Ablaze Bass Tab

Band- Killswitch Engage
Song- World Ablaze

cgcf

Intro:
|-------------------------------------------------|
|-------------------------------------------------|
|-5-5---------5-5---------4-4---------4-4---------|
|-----2-0-2-0-----2-0-2-0-----1-0-1-0-----1-0-1-0-|

|-----------------------------------------------------|
|-----------------------------------------------------|
|--8--8----------8--8---------7-7---------7-7---------|
|-------2-0-2-0-------2-0-2-0-----1-0-1-0-----1-0-1-0-|


|-------------------------------------------------|
|-------------------------------------------------|
|-5-5---------5-5---------4-4---------4-4---------|
|-----2-0-2-0-----2-0-2-0-----1-0-1-0-----1-0-1-0-|

|-------------------------------------------------|
|-------------------------------------------------|
|-5-5---------4-4---------5-5---------5-5---------|
|-----2-0-2-0-----2-0-2-0-----1-0-1-0-----1-0-1-0-|

|-------------------------------------------------|
|-------------------------------------------------|
|-4-4---------4-4---------5-5---------4-4---------|
|-----2-0-2-0-----2-0-2-0-----1-0-1-0-----1-0-1-0-|

|-----------------------------------------------------|
|-----------------------------------------------------|
|--8-8----------8-8-----------7-7---------7-7---------|
|-------2-0-2-0-------2-0-2-0-----1-0-1-0-----1-0-1-0-|

|-------------------------------------------------------|
|-------------------------------------------------------|
|--8-8----------7-7----------8-8-----------8-8----------|
|-------2-0-2-0-----2-0-2-0-------1-0-1-0-------1-0-1-0-|

|---------------------------------------------------|
|---------------------------------------------------|
|-7-7---------7-7----------8--8---------7-7---------|
|-----2-0-2-0-----2-0-2-0-------1-0-1-0-----1-0-1-0-|


Verse 1:
|--------------------------------------------------------------------|
|--------------------------------------------------------------------|
|--------------------------------------------------------3-5/7\5-3/5-|
|-4-1---------------------------1-4----------------------------------|

|--------------------------------------------------------------------|
|--------------------------------------------------------------------| x2   
|--------------------------------------------------------3-5/7\5-3/5-|
|-4-1-0-0-0-1-4-0-0-0-4-1-0-0-0-1-4-0-0-0-4-1-0-0-0-0-0--------------|


|--------------------------------------------------------------------|
|--------------------------------------------------------------------|x2
|--------------------------------------------------------3-5/7\5-3/5-|
|-4-1-------1-4-------4-1-------1-4-------4-1-----0-0-0--------------|
[ Tab from: http://www.guitartabs.cc/tabs/k/killswitch_engage/world_ablaze_btab.html ]
|--------------------------------------------------------------------|
|--------------------------------------------------------------------| x2   
|--------------------------------------------------------3-5/7\5-3/5-|
|-4-1-0-0-0-1-4-0-0-0-4-1-0-0-0-1-4-0-0-0-4-1-0-0-0-0-0--------------|

Pre-Chorus 1:
|---------------------------------------|
|---------------------------------------|
|---------------------------------------|
|000-0-0-0-000-0-0-0-000-0-0-0-000-0-0-0|

|-----------------------------------------------------------------------|
|-----------------------------------------------------------------------|x2
|-----------------------3~-----1~---------------------------------------|
|-0--0-0-0--0-0--0-0-0---------------0--0-0-0--0-0--0-0-0--4~-----1~----|

Chorus:
|-----------------------------------|
|-----------------------------------|
|----3~-----1~--------3~-----1~-----|
|-0~---------------0~---------------|

|--------------------------------------------|
|--------------------------------------------|x2
|-5---5---3-5-5/8-7-5--5---3---3-5-5/8-7-5-5-|
|--------------------------------------------|

Verse 2:
|--------------------------------------------------------------------|
|--------------------------------------------------------------------| x2   
|--------------------------------------------------------3-5/7\5-3/5-|
|-4-1-0-0-0-1-4-0-0-0-4-1-0-0-0-1-4-0-0-0-4-1-0-0-0-0-0--------------|

|--------------------------------------------------------------------|
|--------------------------------------------------------------------|x2
|--------------------------------------------------------3-5/7\5-3/5-|
|-4-1-------1-4-------4-1-------1-4-------4-1-----0-0-0--------------|

Pre-Chorus 2:
|-----------------------------------------------------------------------|
|-----------------------------------------------------------------------|x2
|-----------------------3~-----1~---------------------------------------|
|-0--0-0-0--0-0--0-0-0---------------0--0-0-0--0-0--0-0-0--4~-----1~----|

Chorus:
|-----------------------------------|
|-----------------------------------|
|----3~-----1~--------3~-----1~-----|
|-0~---------------0~---------------|

|--------------------------------------------|
|--------------------------------------------|x2
|-5---5---3-5-5/8-7-5--5---3---3-5-5/8-7-5-5-|
|--------------------------------------------|

Bridge:
|--------------------------------------------------------------------|
|--------------------------------------------------------------------| not sure if thats right, but
|------------3--1------------9--7--6---------5p3p0---5p3p0-----------| it sounds ok to me
|-0--0--0-0----------0-0-0------------0-0-0--------6-------6-5-3-2-3-|


Outro:
|-----------------------------------------------------------------------|
|-----------------------------------------------------------------------| (slowly fade-out)
|-----------------------3~-----1~---------------------------------------|
|-0--0-0-0--0-0--0-0-0---------------0--0-0-0--0-0--0-0-0--4~-----1~----|
Comments