Killswitch Engage - Without A Name Chords & Tabs

 

Without A Name Chords & Tabs

Killswitch Engage Chords & Tabs

Version: 1 Type: Tab 0 ratings
1 star 2 stars 3 stars 4 stars 5 stars
comments

Without A Name Tab

Band- Killswitch Engage
Song- Without A Name

Tuning- DGCFAD

Just repeat riffs as many times as needed

Gtr.1
|-----------------------|
|-8---8----7----3---3---|
|---0---0---0-----0---0-|
|-----------------------|
|-----------------------|
|-----------------------|
[ Tab from: http://www.guitartabs.cc/tabs/k/killswitch_engage/without_a_name_tab.html ]
Gtr.1 (Con't)
|-7---7----5-------------------|
|----------------7----7---7----|
|---0----0----0----0----0----0-|
|------------------------------|
|------------------------------|
|------------------------------|

Gtr.1 (Con't)
|----------------------|
|-5p7-8-----7------7---|
|-------0------0-----0-|
|----------------------|
|----------------------|
|----------------------|

Gtr.2
|-3--3--3--3--3--3--3--3-|
|-3--3--3--3--3--3--3--3-|
|-0--0--0--0--0--0--0--0-|
|-0--0--0--0--0--0--0--0-|
|-2--2--2--2--2--2--2--2-|
|-3--3--3--3--3--3--3--3-|
Comments