Killswitch Engage - When Darkness Falls Chords & Tabs

 

When Darkness Falls Chords & Tabs

Killswitch Engage Chords & Tabs

Version: 4 Type: Tab 0 ratings
1 star 2 stars 3 stars 4 stars 5 stars
comments

When Darkness Falls Tab

Killswitch Engage
"When Darkness Falls" from The End of Heartache - Song #3
Tabbed by: shredyr
E-mail: hollowseedaxeman@hotmail.com
Any comments or requests, please e-mail me...

Tuning: C G C F A D (low to high) thicker strings will help a lot here, i suggest 12-56 ;)
bpm:180
 intro
D|-----------------------|-----------------------|----------------------|
A|-----------------------|-----------------------|---8-8-8-8--7-7-7-7---|
F|-----------------------|-----------------------|---x-x-x-x--x-x-x-x---|
C|-----------------------|-----------------------|---5-5-5-5--4-4-4-4---|
G|---4-----3-----5\4-----|--4-----3-----5\4------|----------------------|
C|---4--0--3--0--5\4--0--|--4--0--3--0--5\4--0---|----------------------|
      pm.     .       .        .     .       .

D|-----------------|
A|-----------------|
F|-----------------|
C|-----------------|
G|---4---3---------|
C|---4---3---3*~---|
   pm.   .

second guitar plays the first chord about 32 times
...and about 16 for the second and third, listen closely for this part
D|-----------------------------|
A|---4------------/7------\4---|
F|---x-------------x-------x---|
C|---1------------/4------\1---|
G|-----------------------------|
C|-----------------------------|

 verse
second part is at the end, not necessarily linked together
D|------------------------------|-------------------------|
A|------------------------------|-------------------------|
F|------------------------------|-------------------------|
C|------------------------------|-------------------------|
G|---4-----3-----5\4-----4------|---0--4--3--0--1---------|
C|---4--0--3--0--5\4--0--4------|---0--4--3--0--1---3*~---|

 pre-chorus
okay, i didnt put this in here, put palm mute TWO 6TH string [C] open
notes BETWEEN each sliding sequence, ...im sure you will figure it out easy enough listen to the cd
D|-------------------------------------------------------------------------------------------------
A|-------------------------------------------------------------------------------------------------
F|--9/10-10-10--9/10-10-10--9/10-10-10--9/10-10-10-10-10-10\9-9-9--10\9-9-9--9/10-10-10--7\5-5-5---
C|--x-----x--x--x-----x--x--x-----x--x--x-----x--x--x--x--x---x-x---x---x-x--x-----x--x--x---x-x---
G|--7/-8--8--8--7/-8--8--8--7/-8--8--8--7/-8--8--8--8--8--8\7-7-7---8\7-7-7--7--8--8--8--5\3-3-3---
C|-------------------------------------------------------------------------------------------------
[ Tab from: http://www.guitartabs.cc/tabs/k/killswitch_engage/when_darkness_falls_tab_ver_4.html ]
D|---------------------------------------------------------------------------------------------------
A|--8/10-10-10--8/10-10-10--12/13-13-13--12/13-13-13-13-13-10\8-8-8--10\8-8-8--8/10-10-10--6\3-3-3---
F|--x-----x--x--x--x--x--x---x-----x--x---x-----x--x--x--x--x---x-x---x---x-x--x-----x--x--x---x-x---
C|--5/-7--7--7--5/-7--7--7---9/10-10-10---9/10-10-10-10-10--7\5-5-5---7\5-5-5--5/-7--7--7--3\0-0-0---
G|---------------------------------------------------------------------------------------------------
C|---------------------------------------------------------------------------------------------------

 chorus (correct)
D|----------8--12--8--------------8---10---8-------------8--12--8-------------8------8-------
A|-------------------------------------------------------------------------------------------
F|---9--10------------10---9--10--------------10--9--10------------10--9--10-----10-----10---
C|-------------------------------------------------------------------------------------------
G|-------------------------------------------------------------------------------------------
C|-------------------------------------------------------------------------------------------

second guitar plays this, with chords ringing out
D|-------------------------------------------------|------------|
A|-------------------------------------------------|------------|
F|-------------------------------------------------|------------|
C|---8-------10----0-------10----8-------10----0---|-------10---|
G|---8-------10----0-------10----8-------10----0---|---0---10---|
C|---8-------10----0-------10----8-------10----0---|---0---10---|
                                                     pm.

 breakdown riff (also correct)
D|-----------------------------------------------------|--------------------|----------------------|
A|-----------------------------------------------------|---6h8p6-5----------|----------------------|
F|-----------------------------------------------------|-----------7-5-7~---|----------------------|
C|---0---------1---------------------------------------|--------------------|----------------------|
G|---0---0-0---1------1-0------------------------------|--------------------|----------------------|
C|---0---0-0---1---0--1-0-----0--4--3--1--3--1--0--1---|--------------------|---6-5-3-0--4-3-1-0---|
       pm...       .          ......................               . .          .......  .......

 end of breakdown
D|-------------------|
A|-------------------|
F|-------------------|
C|---8--8----10-10---|
G|---8--8----10-10---|
C|---8--8----10-10---|

 finishing chords
let these ring out
D|--------8------------------|
A|--------x------------------|
F|--------5--------10--------|
C|-----------------10--------|
G|------------------8--------|
C|---------------------------|

..there ya go, once again, i didnt repeat any chorus parts and what not but you can handle it. ENJOY!!!
Comments