Killswitch Engage - When Darkness Falls Chords & Tabs

 

When Darkness Falls Chords & Tabs

Killswitch Engage Chords & Tabs

Version: 3 Type: Tab 0 ratings
1 star 2 stars 3 stars 4 stars 5 stars
comments

When Darkness Falls Tab

   
Band-Killswitch Engage
Song-When Darkness Falls
Album-The End Of Heartache/Freddy Vs. Jason OST
Label-Roadrunner Records
Tabber-justbreathing87

Tuning: C G C F A D

PM - Palm mute
<3> - Pinch harmonic + Vibrato
\ - Slide down
/ - Slide up
x - Mute string
~ - Vibrato

E-mail me at dand10468@yahoo.com for questions/comments.

Intro/Verse
|-------------------------------------------------------|
|-------------------------------------------------------|
|-------------------------------------------------------|
|---------------------------------------------8888-7777-|
|-4---3---5-4---4---3---5-4---4---3---5-4---4-7777-6666-|
|-4-0-3-0-5-4-0-4-0-3-0-5-4-0-4-0-3-0-5-4-0-4-----------|
PM  .   .     .   .   .     .   .   .     .             

|----------------------------------------------------------|
|----------------------------------------------------------|
|----------------------------------------------------------|
|----------------------------------------------------------|
|-4---3---5-4---4---3---5-4---4---3---5-4---4--0-0-4-3-<2>-|
|-4-0-3-0-5-4-0-4-0-3-0-5-4-0-4-0-3-0-5-4-0-4--0-0-4-3-----|
PM  .   .     .   .   .     .   .   .     .    . . . .

|--------------------------------------------------------|
|--------------------------------------------------------|
|--------------------------------------------------------|
|--------------------------------------------------------|
|-12\--4---3---5-4---4---4---3---5-4---4---5-0-4-0-3-<2>-|
|-12\--4-0-3-0-5-4-0-4---4-0-3-0-5-4-0-4---5-0-4-0-3-----|
PM       .   .     .       .   .     .     . . . . .


|---------------------------------------------------------------|
|---------------------------------------------------------------|
|---------------------------------------------------------------|
|---------------------------------------------------------------|
|-4---3---5-4---4---------4---3---5-4---4---------5-0-4-0-3-----|
|-4-0-3-0-5-4-0-4-0-0-0-0-4-0-3-0-5-4-0-4-0-0-0-0-5-0-4-0-3-<2>-|
PM  -.  .     .   . . . .   .   .     .   . . . . . . . . .


Pre-Chorus
|----------------------------------------------------------------------|
|----------------------------------------------------------------------|
|-7/9-9-9---7/9-9-9--7/9-9-9--7/9-9-9--9\7-7-7--9\7-7-7--7/9-9-9--5-5--|
|----------------------------------------------------------------------|
|-5/7-7-7---5/7-7-7--5/7-7-7--5/7-7-7--7\5-5-5--7\5-5-5--5/7-7-7--3-3--|
|----------------------------------------------------------------------|

[ Tab from: http://www.guitartabs.cc/tabs/k/killswitch_engage/when_darkness_falls_tab_ver_3.html ]
|----------------------------------------------------|
|----------------------------------------------------|
|-12/14-14-14--12/14-14-14--14/17-17-17--14/17-17-17-|
|----------------------------------------------------|
|-10/12-12-12--10/12-12-12--12/15-15-15--12/15-15-15-|
|----------------------------------------------------|

|----------------------------------------------------|
|----------------------------------------------------|
|-14\\12-12-12--14\\12-12-12--12\\7-7-7--7-7-7-7-7-7-|
|----------------------------------------------------|
|-12\\10-10-10--12\\10-10-10--10\\5-5-5--5-5-5-5-5-5-|
|----------------------------------------------------|

Chorus - Guitar 1
|-------------------------------------------------------|
|-------------------------------------------------------|
|-3--3--3--5-----------5--3--3--3--5--------------------|
|-3--3--3--5--0--0--0--5--3--3--3--5--0--0--------------|
|-1--1--1--3--0--0--0--3--1--1--1--3--0--0--0-3-3-0-5-3-|
|-------------0--0--0-----------------0--0--0-3-3-0-5-3-|
PM                                          . . . . . .

Chorus - Guitar 2
|------------12------------------10-----|
|--------10------10----------10------10-|
|-9--10---------------9--10-------------|
|---------------------------------------|
|---------------------------------------|
|---------------------------------------|

Fill
|---------------------------------|
|---------------------------------|
|---------------------------------|
|---------------------------------|
|-4---3---5-4---4---4-5-4-3-0-<3>-|
|-4-0-3-0-5-4-0-4---4-5-4-3-0-----|
PM  .   .     .     . . . . .

Breakdown - Guitar 2
|------------------|
|------------------|
|------------------|
|------------------|
|------------------|
|-/////X-----------|


Both Guitars
|---------------------------------------------------------------|
|------------------------------------------------3h4p3----------|
|------------------------------------------------------5p3p2h3~-|
|---------------------------------------------------------------|
|-0-----0---1-0--0-3-4-3-0-2-3-2--0-----0---1-0-----------------|
|-0-0-0-0-0-1-0--0-3-4-3-0-2-3-2--0-0-0-0-0-1-0-----------------|
PM  . .   .      . . . . . . . .    . .   .


|----------------------------------------------------------------|
|----------------------------------------------------------------|
|----------------------------------------------------------------|
|----------------------------------------------------------------|
|-0-----0---1-0--0-3-4-3-0-2-3-2--0-----0---1-0--0-4-5-4-0-3-4-3-|
|-0-0-0-0-0-1-0--0-3-4-3-0-2-3-2--0-0-0-0-0-1-0--0-4-5-4-0-3-4-3-|
PM  . .   .      . . . . . . . .    . .   .      . . . . . . . .

Fill - Guitar 1
|------------|
|------------|
|------------|
|------------|
|-8-8--10-10-|
|-8-8--10-10-|

Fill - Guitar 2
|------------12-----|
|--------10------10-|
|-9--10-------------|
|-------------------|
|-------------------|
|-------------------|

Last note - Let ring
|------|
|------|
|------|
|--8~--|
|--8~--|
|--8~--|
Comments