Killswitch Engage - When Darkness Falls Chords & Tabs

 

When Darkness Falls Chords & Tabs

Killswitch Engage Chords & Tabs

Version: 1 Type: Tab 0 ratings
1 star 2 stars 3 stars 4 stars 5 stars
comments

When Darkness Falls Tab

   
Song: When Darkness Falls
Artist: Killswitch Engage
Album: Freddy VS Jason Soundtrack
Tabbed by: Christian / silent_warrior_@hotmail.com

PM - Palm mute
<3> - Pinch harmonic + Vibrato
\ - Slide down
/ - Slide up
x - Mute string
~ - Vibrato

Tuning: C G C F A D


Intro/verse
|--------------------------------------------------------------------------------------------------------------|
|--------------------------------------------------------------------------------------------------------------|
|--------------------------------------------------------------------------------------------------------------|
|--------------------------------------------8888-7777---------------------------------------------------------|
|4---3---5-4---4---3---5-4---4---3---5-4---4-7777-6666-4---3---5-4---4---3---5-4---4---3---5-4---4--0-0-4-3-<3>|
|4-0-3-0-5-4-0-4-0-3-0-5-4-0-4-0-3-0-5-4-0-4-----------4-0-3-0-5-4-0-4-0-3-0-5-4-0-4-0-3-0-5-4-0-4--0-0-4-3----|
PM -   -     -   -   -     -   -   -     -               -   -     -   -   -     -   -   -     -    - - - -


|--------------------------------------------------------|
|--------------------------------------------------------|
|--------------------------------------------------------|
|--------------------------------------------------------|
|-12\--4---3---5-4---4---4---3---5-4---4---4-5-4-3-0-<3>-|
|-12\--4-0-3-0-5-4-0-4---4-0-3-0-5-4-0-4---4-5-4-3-0-----|
PM       -   -     -       -   -     -     - - - - -


|---------------------------------------------------------------|
|---------------------------------------------------------------|
|---------------------------------------------------------------|
|---------------------------------------------------------------|
|-4---3---5-4---4---------4---3---5-4---4---------4-5-4-3-0-----|
|-4-0-3-0-5-4-0-4-0-0-0-0-4-0-3-0-5-4-0-4-0-0-0-0-4-5-4-3-0-<3>-|
PM  -   -     -   - - - -   -   -     -   - - - - - - - - -       


Pre-Chorus
|--------------------------------------------------------------------------------------|
|--------------------------------------------------------------------------------------|
|-9/10-10-10--9/10-10-10--9/10-10-10--9/10-10-10--10\9-9-9--10\9-9-9--9/10-10-10--7-7--|
|--------------------------------------------------------------------------------------|
|-7/-8--8--8--7/-8--8--8--7/-8--8--8--7/-8--8--8---8\7-7-7---8\7-7-7--7/-8--8--8--5-5--|
|--------------------------------------------------------------------------------------|

[ Tab from: http://www.guitartabs.cc/tabs/k/killswitch_engage/when_darkness_falls_tab.html ]
|-----------------------------------------------------------------------------------------------------|
|-----------------------------------------------------------------------------------------------------|
|-12/14-14-14--12/14-14-14--14/17-17-17--14/17-17-17--14\12-12-12--14\12-12-12--12\7-7-7--7-7-7-7-7-7-|
|-----------------------------------------------------------------------------------------------------|
|-10/12-12-12--10/12-12-12--12/15-15-15--12/15-15-15--12\10-10-10--12\10-10-10--10\5-5-5--5-5-5-5-5-5-|
|-----------------------------------------------------------------------------------------------------|


Chorus - Guitar 1
|-------------------------------------------------------|
|-------------------------------------------------------|
|-3--3--3--5-----------5--3--3--3--5--------------------|
|-3--3--3--5--0--0--0--5--3--3--3--5--0--0--------------|
|-1--1--1--3--0--0--0--3--1--1--1--3--0--0--0-3-3-0-5-3-|
|-------------0--0--0-----------------0--0--0-3-3-0-5-3-|
PM                                          - - - - - -


Chorus - Guitar 2
|------------12------------------11-----|
|--------11------11----------10------10-|
|-9--10---------------9--10-------------|
|---------------------------------------|
|---------------------------------------|
|---------------------------------------|


Fill
|---------------------------------|
|---------------------------------|
|---------------------------------|
|---------------------------------|
|-4---3---5-4---4---4-5-4-3-0-<3>-|
|-4-0-3-0-5-4-0-4---4-5-4-3-0-----|
PM  -   -     -     - - - - -


Breakdown - Guitar 1
|--------------------------------|
|--------------------------------|
|--------------------------------|
|--------------------------------|
|-0-0-0-0-0-1-0--0-3-4-3-0-2-3-2-|
|-0-0-0-0-0-1-0--0-3-4-3-0-2-3-2-|
PM- - - - - - -  - - - - - - - -


Breakdown - Guitar 2
|------------------|
|------------------|
|------------------|
|------------------|
|------------------|
|-/////X-----------|


Both Guitars
|---------------------------------------------------------------|
|------------------------------------------------6h8p6----------|
|------------------------------------------------------8-7-5-7~-|
|---------------------------------------------------------------|
|-0-----0---1-0--0-3-4-3-0-2-3-2--0-----0---1-0-----------------|
|-0-0-0-0-0-1-0--0-3-4-3-0-2-3-2--0-0-0-0-0-1-0-----------------|
PM  - -   -      - - - - - - - -    - -   -      


|----------------------------------------------------------------|
|----------------------------------------------------------------|
|----------------------------------------------------------------|
|----------------------------------------------------------------|
|-0-----0---1-0--0-3-4-3-0-2-3-2--0-----0---1-0--0-4-5-4-0-3-4-3-|
|-0-0-0-0-0-1-0--0-3-4-3-0-2-3-2--0-0-0-0-0-1-0--0-4-5-4-0-3-4-3-|
PM  - -   -      - - - - - - - -    - -   -      - - - - - - - -


Fill - Guitar 1
|----------|
|----------|
|-3-3--5-5-|
|-3-3--5-5-|
|-1-1--3-3-|
|----------|


Fill - Guitar 2
|------------12-----|
|--------11------11-|
|-9--10-------------|
|-------------------|
|-------------------|
|-------------------|


Last note - Let ring
|-----|
|-----|
|-----|
|--8--|
|--8--|
|--8--|
Comments