Killswitch Engage - When Darkness Falls Chords & Tabs

 

When Darkness Falls Chords & Tabs

Killswitch Engage Chords & Tabs

Version: 1 Type: Bass Tab 0 ratings
1 star 2 stars 3 stars 4 stars 5 stars
comments

When Darkness Falls Bass Tab

   
Band- Killswitch Engage
Song- When Darkness Falls

Drop C Tuning: F C G C

Intro
F|---------------|---------------|-----------------|-----------------|
C|---------------|---------------|-----------------|-----------------|
G|---------------|---------------|-----------------|-7-7-7-7-6-6-6-6-|
C|-4-0-3-0-5-4-0-|-4-0-3-0-5-4-0-|-4-0-3-0-5-4-0-4-|-----------------|
 
F|---------------|---------------|-----------------|-----------------|
C|---------------|---------------|-----------------|-----------------|
G|---------------|---------------|-----------------|-----------------|
C|-4-0-3-0-5-4-0-|-4-0-3-0-5-4-0-|-4-0-3-0-5-4-0-4-|-0--0--4--3------|

F|---------------|---------------|-----------------|-----------------|
C|---------------|---------------|-----------------|-----------------|
G|---------------|---------------|-----------------|-7-7-7-7-6-6-6-6-|
C|-4-0-3-0-5-4-0-|-4-0-3-0-5-4-0-|-4-0-3-0-5-4-0-4-|-----------------|
 
F|---------------|---------------|-----------------|-----------------|
C|---------------|---------------|-----------------|-----------------|
G|---------------|---------------|-----------------|-----------------|
C|-4-0-3-0-5-4-0-|-4-0-3-0-5-4-0-|-4-0-3-0-5-4-0-4-|-0--0--4--3------|

Verse
F|------------------|------------------|------------------|
C|------------------|------------------|------------------|
G|------------------|------------------|------------------|
C|-4-0-3-0-5-4-0-4--|-4-0-3-0-5-4-0-4--|-4-5-4-3-0--------|

F|------------------|------------------|------------------|
C|------------------|------------------|------------------|
G|------------------|------------------|------------------|
C|-4-0-3-0-5-4-0-4--|-4-0-3-0-5-4-0-4--|-4-5-4-3-0--------|

F|------------------|------------------|------------------|
C|------------------|------------------|------------------|
G|------------------|------------------|------------------|
C|-4-0-3-0-5-4-0-4--|-4-0-3-0-5-4-0-4--|-4-5-4-3-0--------|

F|------------------|------------------|------------------|
C|------------------|------------------|------------------|
G|------------------|------------------|------------------|
C|-4-0-3-0-5-4-0-4--|-4-0-3-0-5-4-0-4--|-4-5-4-3-0--------|

Pre-Chorus
F|------------------|------------------|------------------|------------------|
C|------------------|------------------|------------------|------------------|
G|-4/5-5-5--4/5-5-5-|-4/5-5-5--4/5-5-5-|-5\3-3-3--5\3-3-3-|-4/5-5-5--3-3-----|
C|------------------|------------------|------------------|------------------|

F|--------------------------|--------------------------|--------------------------|-----------------------|
C|--------------------------|--------------------------|--------------------------|-----------------------|
G|-10/12-12-12--10/12-12-12-|-12/15-15-15--12/15-15-15-|-12\10-10-10--12\10-10-10-|-10\5-5-5--5-5-5-5-5-5-|
C|--------------------------|--------------------------|--------------------------|-----------------------|

Chorus 
F|------------|------------|------------|-------------------|
C|------------|------------|------------|-------------------|
G|-1--1--1--3-|----------3-|-1--1--1--3-|-------------------|
C|------------|-0--0--0----|------------|-0--0--0-3-3-0-5-3-|

F|------------|------------|------------|-------------------|-------------------|
C|------------|------------|------------|-------------------|-------------------|
G|-1--1--1--3-|----------3-|-1--1--1--3-|-------------------|-------------------|
C|------------|-0--0--0----|------------|-0--0--0-3-3-0-5-3-|-------4-5-4-3-0---|

Verse
F|------------------|------------------|------------------|
C|------------------|------------------|------------------|
G|------------------|------------------|------------------|
C|-4-0-3-0-5-4-0-4--|-4-0-3-0-5-4-0-4--|-4-5-4-3-0--------|

F|------------------|------------------|------------------|
C|------------------|------------------|------------------|
G|------------------|------------------|------------------|
C|-4-0-3-0-5-4-0-4--|-4-0-3-0-5-4-0-4--|-4-5-4-3-0--------|

F|------------------|------------------|------------------|
C|------------------|------------------|------------------|
G|------------------|------------------|------------------|
C|-4-0-3-0-5-4-0-4--|-4-0-3-0-5-4-0-4--|-4-5-4-3-0--------|
[ Tab from: http://www.guitartabs.cc/tabs/k/killswitch_engage/when_darkness_falls_btab.html ]
F|------------------|------------------|------------------|
C|------------------|------------------|------------------|
G|------------------|------------------|------------------|
C|-4-0-3-0-5-4-0-4--|-4-0-3-0-5-4-0-4--|-4-5-4-3-0--------|

Pre-Chorus
F|------------------|------------------|------------------|------------------|
C|------------------|------------------|------------------|------------------|
G|-4/5-5-5--4/5-5-5-|-4/5-5-5--4/5-5-5-|-5\3-3-3--5\3-3-3-|-4/5-5-5--3-3-----|
C|------------------|------------------|------------------|------------------|

F|--------------------------|--------------------------|--------------------------|-----------------------|
C|--------------------------|--------------------------|--------------------------|-----------------------|
G|-10/12-12-12--10/12-12-12-|-12/15-15-15--12/15-15-15-|-12\10-10-10--12\10-10-10-|-10\5-5-5--5-5-5-5-5-5-|
C|--------------------------|--------------------------|--------------------------|-----------------------|

Chorus 
F|------------|------------|------------|-------------------|
C|------------|------------|------------|-------------------|
G|-1--1--1--3-|----------3-|-1--1--1--3-|-------------------|
C|------------|-0--0--0----|------------|-0--0--0-3-3-0-5-3-|

F|------------|------------|------------|-------------------|
C|------------|------------|------------|-------------------|
G|-1--1--1--3-|----------3-|-1--1--1--3-|-------------------|
C|------------|-0--0--0----|------------|-0--0--0-3-3-0-5-3-|

Bridge
F|----------------|-----------------|----------------|-----------------|
C|----------------|-----------------|----------------|-----------------|
G|----------------|-----------------|----------------|-----------------|
C|-0-0-0-0-0-1-0--|-0-3-4-3-0-2-3-2-|-0-0-0-0-0-1-0--|-0-3-4-3-0-2-3-2-|

F|----------------|-----------------|----------------|
C|----------------|-----------------|----------------|
G|----------------|-----------------|----------------|
C|-0-0-0-0-0-1-0--|-0-3-4-3-0-2-3-2-|-0-0-0-0-0-1-0--|

F|----------------|-----------------|----------------|-----------------|
C|----------------|-----------------|----------------|-----------------|
G|----------------|-----------------|----------------|-----------------|
C|-0-0-0-0-0-1-0--|-0-3-4-3-0-2-3-2-|-0-0-0-0-0-1-0--|-0-4-5-4-0-3-4-3-|

F|----------------|-----------------|----------------|
C|----------------|-----------------|----------------|
G|----------------|-----------------|----------------|
C|-0-0-0-0-0-1-0--|-0-3-4-3-0-2-3-2-|-0-0-0-0-0-1-0--|

F|----------------|-----------------|----------------|-----------------|
C|----------------|-----------------|----------------|-----------------|
G|----------------|-----------------|----------------|-----------------|
C|-0-0-0-0-0-1-0--|-0-3-4-3-0-2-3-2-|-0-0-0-0-0-1-0--|-0-4-5-4-0-3-4-3-|

F|----------------|-----------------|----------------|
C|----------------|-----------------|----------------|
G|----------------|-----------------|----------------|
C|-0-0-0-0-0-1-0--|-0-3-4-3-0-2-3-2-|-0-0-0-0-0-1-0--|

F|----------------|-----------------|----------------|-----------------|
C|----------------|-----------------|----------------|-----------------|
G|----------------|-----------------|----------------|--1-1---3-3------|
C|-0-0-0-0-0-1-0--|-0-3-4-3-0-2-3-2-|-0-0-0-0-0-1-0--|-----------------|

Chorus 
F|------------|------------|------------|-------------------|
C|------------|------------|------------|-------------------|
G|-1--1--1--3-|----------3-|-1--1--1--3-|-------------------|
C|------------|-0--0--0----|------------|-0--0--0-3-3-0-5-3-|

F|------------|------------|------------|-------------------|
C|------------|------------|------------|-------------------|
G|-1--1--1--3-|----------3-|-1--1--1--3-|-------------------|
C|------------|-0--0--0----|------------|-0--0--0-3-3-0-5-3-|

F|------------|------------|------------|-------------------|
C|------------|------------|------------|-------------------|
G|-1--1--1--3-|----------3-|-1--1--1--3-|-------------------|
C|------------|-0--0--0----|------------|-0--0--0-3-3-0-5-3-|

F|------------|------------|------------|-------------------|------|
C|------------|------------|------------|-------------------|------|
G|-1--1--1--3-|----------3-|-1--1--1--3-|-------------------|------|
C|------------|-0--0--0----|------------|-0--0--0-3-3-0-5-3-|-8~---|
Comments