Killswitch Engage - Vide Infra Chords & Tabs

 

Vide Infra Chords & Tabs

Killswitch Engage Chords & Tabs

Version: 4 Type: Tab

Vide Infra Tab

band: killsiwtch engage
album: killswitch engage
song: in the unblind
   tabber: dicer4
   e-mail: diecr4@msn.com or xX_Rise_Inside_Xx@hotmail.com
tunning: drop c(cgcfad)

h hammer on
p pull off
/ slide up or down( which ever is needed)
. palm mute

intro/verse
d|----------------------------------------------------|
a|----------------------------------------------------|
f|----------------------------------------------------|
c|----------------------------------------------------|
g|-7--------7----8-------5-3-8------------------------|
c|---000-00---000--0000--5-3-8------------------------|
pm   ... ..   ...  ....


d|----------------------------------------------------|
a|----------------------------------------------------|
f|----------------------------------------------------|
c|----------------------------------------------------|
g|-7--------7-----8-------6--3-2-3-5-3-2--------------|
c|---000-00---000---0000--6--3-2-3-5-3-2--------------|
pm   ... ..   ...   ....     . . . . . .

pre-choures
d|-------------------------------------------|
a|-------------------------------------------|
f|-------------------------------------------|
c|-------------------------------------------|
g|---------------333333-666666---------------|
c|-333333-666666-----------------------------|

d|----------------------------------------------------|
a|----------------------------------------------------|
f|----------------------------------------------------|
c|----------------------555555------------------------|
g|---------------666666-------------------------------|
c|-333333-666666--------------------------------------|

fill (before second verse)
d|----------------------------------------------------|
a|----------------------------------------------------|
f|----------------------------------------------------|
c|----------5-----------------------------------------|
g|--7---6---3-----------------------------------------|
c|----0---0-------------------------------------------|
pm    .   .

choures
d|-----------------------------------------------------|
a|-----------------------------------------------------|
f|-----------------------------------------------------|
c|-2h3p2--------------------2h3p2-------2h3p2---2------|
g|-2h3p2-------2h3p2---2----2h3p2-------------0---00---|
c|-2h3p2-00-00-2h3p2-0-2-00-2h3p2-00-00----------------|
pm       .. ..       .   ..       .. ..       .   ..      

interlude gtr.1
d|----------------------------------------------------|
a|----------------------------------------------------|
f|----------------------------------------------------|
c|--------------------------------2h3p2---2-----------|
g|-000-000-000-000-000-000-000-00-------0---00--------|
c|-000-000-000-000-000-000-000------------------------|
pm ... ... ... ... ... ... ... ..       .   .. 

interlude gtr.2
d|------------------------------------------------------|
a|------------------------------------------------------|
f|---------------------2--------------------------------|
c|-2---2/3---3/5---2---0-------2h3p2---2----------------|
g|-2---2/3---3/5---2---2----00-------0---00-------------|
c|------------------------------------------------------|
pm                          ..       .   ..                          
[ Tab from: http://www.guitartabs.cc/tabs/k/killswitch_engage/vide_infra_tab_ver_4.html ]
bridge gtr.1
d|------------------------------------------------------|
a|------------------------------------------------------|
f|----------------777777777777-9999-10101010101010------|
c|-5---7---9------xxxxxxxxxxxx-xxxx-x-x-x-x-x-x-x--(x2)-|
g|-3---5---7-(x2)-555555555555-7777-8-8-8-8-8-8-8-------|
c|-5---7---9--------------------------------------------|

bridge gtr.2
d|--------------------------------------------------------------------|
a|--------------------------------------------------------------------|
f|--------------------------------------------------------------------|
c|--------------------------------------------------------------------|
g|-77-10-77-10-77-10-77-10-77-10p9--77-10-77-10-77--9h10p9-9----------|
c|-----------------------------------------------------------12p10-8--|
pm ..    ..    ..    ..    ..       ..    ..    ..

outro part 1  gtr.1
d|----------------------------------------------------|
a|----------------------------------------------------|
f|----------------------------------------------------|
c|----------------------------------------------------|
g|-3333333333333333--22222222------------(x4)--------|
c|------------------------------22222222--------------|

gtr.2
d|----------------------------------------------------|
a|----------------------------------------------------|
f|----------------------------------------------------|
c|-44444444-55555555-77777777-99999999--(x2)----------|
g|----------------------------------------------------|
c|----------------------------------------------------|

d|----------------------------------------------------|
a|----------------------------------------------------|
f|----------------------------------------------------|
c|-2222222-99999-77777-99999-12121212121212-5555555---|
g|----------------------------------------------------|
c|----------------------------------------------------|

d|-----------------------------------------------------|
a|--------------------------------------------5--------|
f|--------------------------------------------4--------|
c|-2222222-99999-77777-99999-12121212121212---2--------|
g|--------------------------------------------2--------|
c|--------------------------------------------2--------|

outro part 2 gtr.1  (clean)
d|----------------------------------------------------|
a|----------------------------------------------------|
f|----9---9-----9---9------10---10-----10---10--------|
c|------7---7-----7-----------9----9------9-----------|
g|-7----------7----------8-----------8----------------|
c|----------------------------------------------------|

outro part 2 gtr.2
d|-----------------------------------------------------|
a|-5----5----5----5------------------------------------|
f|-4----4----4----4------------------------------------|
c|-2----2----2----2------------------------------------|
g|-2----2----2----2--//////6-//////6--2~---------------|
c|-2----2----2----2--//////6-//////6--2~---------------|


LYRICS:
 have opened my eyes to see to see the world the surrounds me daily
I refuse to be led by the majority
can't compromise I and I

to pass judgment
judgment will be passed upon you

I will stand up for who we are
never moved by condemnation

no one is placed higher than another
no matter race or creed or gender
we must teach forgiveness and compassion for all life

through understanding of our differences
we will find respect for one another
we are all flesh and blood

I am not afraid to speak my mind
no matter the consequences
stay true to yourself

through the humble eyes of a child we will realize true equality

they can not take me from me, they cannot take you from you, they cannot take i from i