Killswitch Engage - Vide Infra Chords & Tabs

 

Vide Infra Chords & Tabs

Killswitch Engage Chords & Tabs

Version: 3 Type: Tab

Vide Infra Tab

   
p - Pull off
pm- Palm mute
\ - Slide down
/ - Slide up
h - Hammer on

Tuning: E B G D A D

                                                                               
Riff 1 
Guitar 1 and Guitar 2
|---------------------------------|-----------|  
|---------------------------------|-----------|   
|---------------------------------|-----------| 
|-5---------------5-------6-------|-3--1--8---|    
|-5---------------5-------6-------|-3--1--8---|
|---0-000-0-000-0---000-0---000-0-|-3--1--8---|
PM  . ... . ... .   ... .   ... .

|---------------------------------|----------------|
|---------------------------------|----------------|
|---------------------------------|----------------|
|---------------------------------|-5--1-0-1-3-1-0-|
|-5---------------5-------6-------|-5--1-0-1-3-1-0-|
|---0-000-0-000-0---000-0---000-0-|-5--1-0-1-3-1-0-|
PM  . ... . ... .   ... .   ... .      . . . . . .

Riff 2
Guitar 1
|-----------------------------------|                                       
|---------------------------------------|
|---------------------------------------|
|----------------------------33333333---|
|-------------------44444444------------|
|-11111111-44444444---------------------|


Riff 2
Guitar 2
|---------------------------------------|
|---------------------------------------|
|---------------------------------------|
|---------------------------------------|
|-------------------11111111-44444444---|
|-11111111-44444444---------------------|


Riff 3
Guitar 1
|-----------------|
|-----------------|
|-----------------|
|-------------3---|
|-5-----4-----1---|
|---000---000-----|  
PM  ...   ...


Riff 4
Guitar 2 (1st time)
|----|
|----|
|----|
|-0--|
|-0--|
|-0--|


Riff 5
Guitar 1 (Later Guitar 1 and Guitar 2)
|----------------------------------------------------------------|
|----------------------------------------------------------------|
|----------------------------------------------------------------|
|-0-1-0--------------------------0-1-0---------------------------|
|-0-1-0----------0h1p0---0-------0-1-0----------5h6p5---5--------|
|-0-1-0--0-0-0-0-------3---3-1-0-0-1-0--0-0-0-0-------8---8-7-0--|
PM       . . . .       .                . . . .       .


Riff  6
Guitar 2 (2nd time)
|----------------------------------------------------------------|
|----------------------------------------------------------------|
|----------------------------------------------------------------|
|-0------------------------------0--------------0-0-0-0-0-0-0-0--|
|-0------------------------------0--------------0-0-0-0-0-0-0-0--|
|-0------------------------------0--------------0-0-0-0-0-0-0-0--|
PM                                              . . . . . . . .


Riff 7
Guitar 2
|-------------------------------------------------| 
|-------------------------------------------------| 
|-------------------------------------------------| 
|-0---1---3--0---5--------------------------------|
|-0---1---3--0---5---5h6p5---5--------------------|
|-0---1---3--0---5---------8---8-7-0--------------|
PM                         .   . . 

[ Tab from: http://www.guitartabs.cc/tabs/k/killswitch_engage/vide_infra_tab_ver_3.html ]
Riff 7
Guitar 1
|-------------------------------------------------| 
|-------------------------------------------------| 
|-------------------------------------------------| 
|-000-000-000-000---------------------------------| bunch of times
|-000-000-000-000----5h6p5---5--------------------| 
|-000-000-000-000----------8---8-7-3--------------| 
PM... ... ... ...


Riff 8
Guitar 1
|------------------|
|------------------|
|------------------|
|------------------|
|-5h6p5---5--------|
|-------8---8-7-3--|


Riff 9 
Guitar 2
|-------------|
|-------------|                         
|-------------| 
|-8--10--12---|
|-8--10--12---|
|-8--10--12---|


Riff 9
Guitar 1
|---------------------------------------------------------------------|     
|---------------------------------------------------------------------|     
|---------------------------------------------------------------------| 
|---------------------------------------------------------------------|     
|-5-5-8-5-5-8-5-5-8-5-5-8-5-5-8--5-5-8-5-5-8-5-5----7-8-7----7--------|     
|---------------------------------------------------------10---10-8---|     
PM. .   . .   . .   . .   . .    . .   . .   . .      


Riff 10
Guitar 2
|-----------------------------------------------------------|
|-----------------------------------------------------------|
|-77777777777777-99999-101010101010101010-------------------|
|-xxxxxxxxxxxxxx-xxxxx-xxxxxxxxxxxxxxxxx----5-7-5---5-------|
|-55555555555555-77777-88888888888888888----------8---8-7-8-|
|-----------------------------------------------------------|


Riff 11
Guitar 1
|--------------------------------------------|
|--------------------------------------------|
|--------------------------------------------|       
|--------------------------------------------|
|-1111111111111111111-000000000--------------|
|-------------------------------000000000----|

Riff 11
Guitar 2
|--------------------------------------------|
|--------------------------------------------|
|--------------------------------------------| 
|-222222222-333333333-555555555-777777777----| 
|--------------------------------------------|
|--------------------------------------------|


Riff 12
Guitar 1                                                       
|---------------------------------------------------------|    
|---------------------------------------------------------|    
|---------------------------------------------------------|    
|--------333333-222222-333333-----------------------------|    
|-111111----------------------0000000000000---------------|    
|-------------------------------------------0000000000000-|    


Riff 12
Guitar 2                                                       
|----------------------------------------------------------|   
|----------------------------------------------------------|   
|----------------------------------------------------------|   
|-000000-777777-555555-777777-101010101010101010-333333333-|   
|----------------------------------------------------------|   
|----------------------------------------------------------|   


Riff 13
Guitar 1
|-0-----|
|-3-----|
|-2-----| 
|-0-----| 
|-0-----|
|-0-----|


Riff 13
Guitar 2
|-------------------------|
|-------------------------|
|-7-----------9----10-----|
|-x-----------x----x------|
|-5-----------7----8------|
|-------------------------|


Order Song

Riff 1
Riff 2
Riff 3
Riff 1
Riff 2
Riff 4 and Riff 5
Riff 6 and Riff 5
Riff 5 (Guitar 1 and Guitar 2)
Riff 7
Riff 8
Riff 5 (Guitar 1 and Guitar 2)
Riff 9
Riff 9 and Riff 10
Riff 11
Riff 12
Riff 13