Killswitch Engage - Vide Infra Chords & Tabs

 

Vide Infra Chords & Tabs

Killswitch Engage Chords & Tabs

Version: 2 Type: Tab 0 ratings
1 star 2 stars 3 stars 4 stars 5 stars
comments

Vide Infra Tab

   
Song: Vide Infra
Artist: Killswitch Engage
Album: Alive or Just Breathing
Tabbed by: Frank (datswhat@optonline.net)

p - Pull off
pm- Palm mute
\ - Slide down
/ - Slide up
()- Pinch harmonic and vibrato
h - Hammer on

Tuning: E B G D A D



|---------------------------------|-----------|  
|---------------------------------|-----------|   
|---------------------------------|-----------| 
|---------------------------------|-3--1--6---|    
|-5---------------5-------6-------|-3--1--6---|    
|---0-000-0-000-0---000-0---000-0-|-3--1--6---|  
PM  . ... . ... .   ... .   ... .


|---------------------------------|----------------|  
|---------------------------------|----------------|   
|---------------------------------|----------------| 
|---------------------------------|-5--3-1-0-1-3-1-|    
|-5---------------5-------6-------|-5--3-1-0-1-3-1-|    
|---0-000-0-000-0---000-0---000-0-|-5--3-1-0-1-3-1-|  
PM  . ... . ... .   ... .   ... .        . . . . .


|---------------------------------------|
|---------------------------------------|
|---------------------------------------|
|---------------------------------------|
|-------------------11111111-44444444---|
|-11111111-44444444---------------------|



|-----------------------------------------------|------------------|
|-----------------------------------------------|------------------|
|-----------------------------------------------|------------------| 
|-5-6-5p0-0-0-0-0-5-6-0-6-0-0-0-5-6-5p0-0-0-0-0-|------------------| 
|-5-6-5p0-0-0-0-0-5-6-0-6-0-0-0-5-6-5p0-0-0-0-0-|-5h6p5---5--------|
|-5-6-5p0-0-0-0-0-5-6-0-6-0-0-0-5-6-5p0-0-0-0-0-|-------0---0-8-7--|
PM        . . . .     .   . . .         . . . .         .   . . .

[ Tab from: http://www.guitartabs.cc/tabs/k/killswitch_engage/vide_infra_tab_ver_2.html ]
Guitar 1
|-------------------------------------------------| 
|-------------------------------------------------| 
|-------------------------------------------------| 
|-0---1---3--0---1--------------------------------|
|-0---1---3--0---1---5h6p5---5--------------------|
|-0---1---3--0---1---------0---0-8-7--------------|
PM                         .   . . .

Guitar 2
|---------| 
|---------| 
|---------| bunch of times
|-000-000-| 
|-000-000-| 
|-000-000-| 
PM... ... 

Guitar 2
|-------------|
|-------------|
|-------------| 
|-8--10--12---|
|-8--10--12---|
|-8--10--12---|



Guitar 1
|-----------------------------------------------------------------|     
|-----------------------------------------------------------------|     
|-----------------------------------------------------------------| 
|-------------------------------------------------5-6-5---5-------|     
|-5-5-8-5-5-8-5-5-8-5-5-8-5-5-8--5-5-8-5-5-8-5-5--------8---8-7-8-|     
|-----------------------------------------------------------------|     
PM. .   . .   . .   . .   . .    . .   . .   . .      


|--------------------------------------------|
|--------------------------------------------|
|--------------------------------------------| theres more to this part that i didn't tab
|-000000000-333333333-555555555-777777777----| (keep picking higher)
|--------------------------------------------|
|--------------------------------------------|


|-0-----|
|-3-----|
|-2-----| let this chord ring and play with it to get the
|-0-----| right sound
|-0-----|
|-0-----|


this is basically the full song and i think its 95% correct so enjoy.
i plan on tabbing out lots more kse songs, if you have any corrections
or comments about the tab please feel free to email me at datswhat@optonline.net

P.S.

saddam hussein has herpes ;x
Comments