Killswitch Engage - The Sons Of Man Chords & Tabs

 

The Sons Of Man Chords & Tabs

Killswitch Engage Chords & Tabs

Version: 1 Type: Tab 0 ratings
1 star 2 stars 3 stars 4 stars 5 stars
comments

The Sons Of Man Tab

   

Band: KILLSWITCH ENGAGE
          Song: "To The Sons Of Man"
          CD: "Alive Or Just Breathing"
          Length: 1:58
  
         Tabbed By: Sean Coleman
                    rocknguitarist@yahoo.com
         Tuning: (C,G,C,F,A,D) - Low To High

      Key:   pm = palm mute
              h = hammer on
              p = pull off
              / = slide up
              \ = slide down
              % = rest
             ( )= let ring
              ~ = vibrato





     Verse 1 - (Guitar 1) - 2x

 D|--------------------------------|--------------------------|--------------------------------|--------------------------|
 A|--------------------------------|--------------------------|--------------------------------|--------------------------|
 F|--------------------------------|--------------------------|--------------------------------|--------------------------|
 C|--------------------------------|-----------------6--6-----|--------------------------------|--------------0h6h9-------|
 G|--------------------------------|-----------------6--6-----|--------------------------------|-------0h5h8--------0h5h8-|
 C|-3--3-3-3-3-3-3-6p3-3-3-3-3-3-3-|-6p3-3-3-3-3-3-3-------0--|-3--3-3-3-3-3-3-6p3-3-3-3-3-3-3-|-0h6h9--------------------|
 pm    . . . . . .     . . . . . .       . . . . . .               . . . . . .     . . . . . .


 D|--------------------------------|--------------------------|--------------------------------|------------------|
 A|--------------------------------|--------------------------|--------------------------------|------------------|
 F|--------------------------------|--------------------------|--------------------------------|------------------|
 C|--------------------------------|-----------------6--6-----|--------------------------------|-2----------------|
 G|--------------------------------|-----------------6--6-----|--------------------------------|-0--3--2--3--2--1-|
 C|-3--3-3-3-3-3-3-6p3-3-3-3-3-3-3-|-6p3-3-3-3-3-3-3-------0--|-3--3-3-3-3-3-3-6p3-3-3-3-3-3-3-|----3--2--3--2--1-|
 pm    . . . . . .     . . . . . .       . . . . . .               . . . . . .     . . . . . .            .  .  .


     Verse 1 - (Guitar 2) - 2x

 D|--------------------------------|--------------------------|--------------------------------|-----------------------------|
 A|--------------------------------|--------------------------|--------------------------------|-----------------------------|
 F|--------------------------------|--------------------------|--------------------------------|-----------------------------|
 C|--------------------------------|-----------------6--6-----|--------------------------------|---------------0h9h12--------|
 G|--------------------------------|-----------------6--6-----|--------------------------------|--------0h8h11--------0h8h11-|
 C|-3--3-3-3-3-3-3-6p3-3-3-3-3-3-3-|-6p3-3-3-3-3-3-3-------0--|-3--3-3-3-3-3-3-6p3-3-3-3-3-3-3-|-0h9h12----------------------|
 pm    . . . . . .     . . . . . .       . . . . . .               . . . . . .     . . . . . .


 D|--------------------------------|--------------------------|--------------------------------|------------------|
 A|--------------------------------|--------------------------|--------------------------------|------------------|
 F|--------------------------------|--------------------------|--------------------------------|------------------|
 C|--------------------------------|-----------------6--6-----|--------------------------------|-2----------------|
 G|--------------------------------|-----------------6--6-----|--------------------------------|-0--3--2--3--2--1-|
 C|-3--3-3-3-3-3-3-6p3-3-3-3-3-3-3-|-6p3-3-3-3-3-3-3-------0--|-3--3-3-3-3-3-3-6p3-3-3-3-3-3-3-|----3--2--3--2--1-|
 pm    . . . . . .     . . . . . .       . . . . . .               . . . . . .     . . . . . .            .  .  .




     Fill 1 - (Guitar 1) - 2x

 D|--------------------------------|------------------|--------------------------------|-----------------------|
 A|--------------------------------|------------------|--------------------------------|-----------------------|
 F|--------------------------------|------------------|--------------------------------|-----------------------|
 C|--------------------------------|-4/7--7--7--7\4/7-|--------------------------------|----------4/7----------|
 G|--------------------------------|-2/5--5--5--5\2/5-|--------------------------------|-------3-------6-------|
 C|-1--1-1-1-1-1-1-4p1-1-1-1-1-1-1-|------------------|-1--1-1-1-1-1-1-4p1-1-1-1-1-1-1-|-0--4-------------7--0-|
 pm    . . . . . .     . . . . . .                         . . . . . .     . . . . . .


     Fill 1 - (Guitar 2) - 2x

 D|--------------------------------|------------------|--------------------------------|------------------------|
 A|--------------------------------|------------------|--------------------------------|------------------------|
 F|--------------------------------|------------------|--------------------------------|------------------------|
 C|--------------------------------|-4/7--7--7--7\4/7-|--------------------------------|---------7/10-----------|
 G|--------------------------------|-2/5--5--5--5\2/5-|--------------------------------|------6--------9--------|
 C|-1--1-1-1-1-1-1-4p1-1-1-1-1-1-1-|------------------|-1--1-1-1-1-1-1-4p1-1-1-1-1-1-1-|0--7--------------10--0-|
 pm    . . . . . .     . . . . . .                         . . . . . .     . . . . . .




     Verse 2 - (Guitar 1)

 D|--------------------------------|--------------------------|--------------------------------|--------------------------|
 A|--------------------------------|--------------------------|--------------------------------|--------------------------|
 F|--------------------------------|--------------------------|--------------------------------|--------------------------|
 C|--------------------------------|-----------------6--6-----|--------------------------------|--------------0h6h9-------|
 G|--------------------------------|-----------------6--6-----|--------------------------------|-------0h5h8--------0h5h8-|
 C|-3--3-3-3-3-3-3-6p3-3-3-3-3-3-3-|-6p3-3-3-3-3-3-3-------0--|-3--3-3-3-3-3-3-6p3-3-3-3-3-3-3-|-0h6h9--------------------|
 pm    . . . . . .     . . . . . .       . . . . . .               . . . . . .     . . . . . .


 D|--------------------------------|--------------------------|--------------------------------|------------------|
 A|--------------------------------|--------------------------|--------------------------------|------------------|
 F|--------------------------------|--------------------------|--------------------------------|------------------|
 C|--------------------------------|-----------------6--6-----|--------------------------------|-2----------------|
 G|--------------------------------|-----------------6--6-----|--------------------------------|-0--3--2--3--2--1-|
 C|-3--3-3-3-3-3-3-6p3-3-3-3-3-3-3-|-6p3-3-3-3-3-3-3-------0--|-3--3-3-3-3-3-3-6p3-3-3-3-3-3-3-|----3--2--3--2--1-|
 pm    . . . . . .     . . . . . .       . . . . . .               . . . . . .     . . . . . .            .  .  .


     Verse 1 - (Guitar 2)
[ Tab from: http://www.guitartabs.cc/tabs/k/killswitch_engage/the_sons_of_man_tab.html ]
 D|--------------------------------|--------------------------|--------------------------------|-----------------------------|
 A|--------------------------------|--------------------------|--------------------------------|-----------------------------|
 F|--------------------------------|--------------------------|--------------------------------|-----------------------------|
 C|--------------------------------|-----------------6--6-----|--------------------------------|---------------0h9h12--------|
 G|--------------------------------|-----------------6--6-----|--------------------------------|--------0h8h11--------0h8h11-|
 C|-3--3-3-3-3-3-3-6p3-3-3-3-3-3-3-|-6p3-3-3-3-3-3-3-------0--|-3--3-3-3-3-3-3-6p3-3-3-3-3-3-3-|-0h9h12----------------------|
 pm    . . . . . .     . . . . . .       . . . . . .               . . . . . .     . . . . . .


 D|--------------------------------|--------------------------|--------------------------------|------------------|
 A|--------------------------------|--------------------------|--------------------------------|------------------|
 F|--------------------------------|--------------------------|--------------------------------|------------------|
 C|--------------------------------|-----------------6--6-----|--------------------------------|-2----------------|
 G|--------------------------------|-----------------6--6-----|--------------------------------|-0--3--2--3--2--1-|
 C|-3--3-3-3-3-3-3-6p3-3-3-3-3-3-3-|-6p3-3-3-3-3-3-3-------0--|-3--3-3-3-3-3-3-6p3-3-3-3-3-3-3-|----3--2--3--2--1-|
 pm    . . . . . .     . . . . . .       . . . . . .               . . . . . .     . . . . . .            .  .  .




     Fill 2 - (Guitars 1 & 2) - 2x

 D|------------------|------------------|------------------|------------------|
 A|------------------|------------------|------------------|------------------|
 F|------------------|------------------|------------------|------------------|
 C|-2----------------|------------------|-2----------------|------------------|
 G|-0--3--2--3--2--1-|-3--2--1--3--2--1-|-0--3--2--3--2--1-|-3--2--1--3--2--1-|
 C|----3--2--3--2--1-|-3--2--1--3--2--1-|----3--2--3--2--1-|-3--2--1--3--2--1-|
 pm          .  .  .   .  .  .  .  .  .            .  .  .   .  .  .  .  .  .




     Fill 2A - (Guitars 1 & 2) - 2x

 D|------------------------|------------------------|------------------------|------------------------|
 A|------------------------|------------------------|------------------------|------------------------|
 F|------------------------|------------------------|------------------------|------------------------|
 C|-2----------------------|------------------------|-2----------------------|------------------------|
 G|-0--3--0--3--2--0--2--1-|-0--3--2--0--2--1--0--1-|-0--3--0--3--2--0--2--1-|-0--3--2--0--2--1--0--1-|
 C|----3--0--3--2--0--2--1-|-0--3--2--0--2--1--0--1-|----3--0--3--2--0--2--1-|-0--3--2--0--2--1--0--1-|
 pm       .  .  .  .  .  .   .  .  .  .  .  .  .  .         .  .  .  .  .  .   .  .  .  .  .  .  .  .




     Interlude - (Guitar 1) - 3x

 D|----------------|-----------------|----------------|-----------------|
 A|----------------|-----------------|----------------|-----------------|
 F|----------------|-----------------|----------------|-----------------|
 C|----------------|-----------------|----------------|-----------------|
 G|--------8--7--5-|------8--7--4----|--------8--7--5-|------10--7--8~--|
 C|-0-0-0----------|-0-0-----------0-|-0-0-0----------|-0-0-------------|
 pm . . .            . .           .   . . .            . .


 D|----------------|-----------------|------------------|-----------------|
 A|----------------|-----------------|------------------|-----------------|
 F|----------------|-----------------|------------------|-----------------|
 C|----------------|-----------------|------------------|-----------------|
 G|--------8--7--5-|------8--7--4----|----------5-------|-------4--5--7~--|
 C|-0-0-0----------|-0-0-----------0-|-0--5--8-----8--5-|-0--7------------|
 pm . . .            . .           .   .  .  .            .  .  .  .


     Interlude - (Guitar 2) - 3x

 D|----------------|-----------------|----------------|-----------------|
 A|----------------|-----------------|----------------|-----------------|
 F|----------%-----|---------%-------|----------%-----|----------%------|
 C|----------------|-----------------|----------------|-----------------|
 G|-0-0-0----------|-0-0-----------0-|-0-0-0----------|-0-0-------------|
 C|-0-0-0----------|-0-0-----------0-|-0-0-0----------|-0-0-------------|
 pm . . .            . .           .   . . .            . .


 D|----------------|-----------------|------------------|-----------------|
 A|----------------|-----------------|------------------|-----------------|
 F|----------%-----|---------%-------|------------------|-----------------|
 C|----------------|-----------------|------------------|-------------5~--|
 G|-0-0-0----------|-0-0-------------|-------5--8--5----|----4--7--8------|
 C|-0-0-0----------|-0-0-------------|-0--8-----------8-|-0---------------|
 pm . . .            . .               .  .  .            .  .  .  .




     Chorus - (Guitars 1 & 2) - 2x

 D|----------------------|----------------------|------------------------|------------------------|------------|
 A|-3----------------(3)-|-6----------------(6)-|--8-----------------(8)-|-10----------------(10)-|------------|
 F|-2----------------(2)-|-7----------------(7)-|--9-----------------(9)-|--9-----------------(9)-|------------|
 C|-0----------------(0)-|-0----------------(0)-|--0-----------------(0)-|-11----------------(11)-|-5----------|
 G|-0----------------(0)-|-8----------------(8)-|-10----------------(10)-|--7-----------------(7)-|-5--5--5--5-|
 C|-0----------------(0)-|-8----------------(8)-|-10----------------(10)-|--7-----------------(7)-|----5--5--5-|
 pm                                 								       .  .  .




     Outro - (Guitar 1) - 2x

 D|----------------|-----------------|----------------|-----------------|
 A|----------------|-----------------|----------------|-----------------|
 F|----------------|-----------------|----------------|-----------------|
 C|----------------|-----------------|----------------|-----------------|
 G|--------8--7--5-|------8--7--4----|--------8--7--5-|------10--7--8~--|
 C|-0-0-0----------|-0-0-----------0-|-0-0-0----------|-0-0-------------|
 pm . . .            . .           .   . . .            . .


 D|----------------|-----------------|------------------|-----------------|
 A|----------------|-----------------|------------------|-----------------|
 F|----------------|-----------------|------------------|-----------------|
 C|----------------|-----------------|------------------|-----------------|
 G|--------8--7--5-|------8--7--4----|----------5-------|-------4--5--7~--|
 C|-0-0-0----------|-0-0-----------0-|-0--5--8-----8--5-|-0--7------------|
 pm . . .            . .           .   .  .  .            .  .  .  .


     Outro - (Guitar 2) - 2x

 D|----------------|-----------------|----------------|----------------|
 A|----------------|-----------------|----------------|----------------|
 F|----------------|-----------------|----------------|----------------|
 C|--------7--5----|------7--5-------|--------7--5----|------8--5--7~--|
 G|--------------8-|------------7----|--------------8-|----------------|
 C|-0-0-0----------|-0-0-----------0-|-0-0-0----------|-0-0------------|
 pm . . .            . .           .   . . .            . .


 D|----------------|-----------------|------------------|-----------------|
 A|----------------|-----------------|------------------|-----------------|
 F|----------------|-----------------|------------------|-----------------|
 C|--------7--5----|------7--5-------|------------------|-------------5~--|
 G|--------------8-|------------7----|-------5--8--5----|----4--7--8------|
 C|-0-0-0----------|-0-0-----------0-|-0--8-----------8-|-0---------------|
 pm . . .            . .           .   .  .  .            .  .  .  .
Comments