Killswitch Engage - The End Of Heartache Chords & Tabs

 

The End Of Heartache Chords & Tabs

Killswitch Engage Chords & Tabs

Version: 6 Type: Tab 0 ratings
1 star 2 stars 3 stars 4 stars 5 stars
comments

The End Of Heartache Tab

Tuning: Dropped D down one whole step (CGCFAD)

INTRO:

Gtr. 1
D-1---1---1---1---3---3---1---1---1---1---3---3-----||
A--5---5---5---5---5---5---5---5---5---5---5---5----||
F---5---5---5---5---5---5---5---5---5---5---5---5---||
C---------------------------------------------------||
G---------------------------------------------------||
C---------------------------------------------------||

Gtr. 2
D---------------------------------------------------||
A---------------------------------------------------||
F-2---------------------------------------5---------||
C-0---------------------------------------5---------||
G-0---------------------------------------3---------||
C-0-------------------------------------------------||



"Seek Me..."

Gtr. 1
D-1---1---1---1---1---1---1---1---1---1----||
A--5---5---5---5---5---5---5---5---5---5---||
F---5---5---5---5---5---5---5---5---5---5--||
C------------------------------------------||
G------------------------------------------||
C------------------------------------------||

Gtr. 2

  PM.....    PM.......
D------------------------------------------||
A------------------------------------------||
F------------------------------------------||
C-0-0-0-0----0-0-0-0-0-------9/10/9-8/10---||
G-0-0-0-0----0-0-0-0-0-------7/ 8/7-8/10---||
C-0-0-0-0----0-0-0-0-0--------------8/10---||

  PM.....    PM.......
D------------------------------------------||
A------------------------------------------||
F------------------------------------------||
C-8-8-8-8----8-8-8-8-8-------9/10/9-8/10---||
G-8-8-8-8----8-8-8-8-8-------7/ 8/7-8/10---||
C-8-8-8-8----8-8-8-8-8--------------8/10---||

PRE-CHORUS RIFF:

 
Gtr. 1 & 2
  PM.....  PM.....  PM.  PM.........
D--------------------------------------------------------||
A--------------------------------------------------------||
F--------------------------------------------------------||
C-0-0-0-0--0-0-0-0--0-0--0-0-0-0-0-0---------------------||
G-0-0-0-0--0-0-0-0--0-0--0-0-0-0-0-0---------------------||
C-0-0-0-0--0-0-0-0--0-0--0-0-0-0-0-0-7H10P7H10P6H9P6H9---||

  PM.....  PM.....  PM.  PM.........
D------------------------------------------------------||
A------------------------------------------------------||
F------------------------------------------------------||
C-0-0-0-0--0-0-0-0--0-0--0-0-0-0-0-0-------------------||
G-0-0-0-0--0-0-0-0--0-0--0-0-0-0-0-0-5H8P5H8P4H7P4H7---||
C-0-0-0-0--0-0-0-0--0-0--0-0-0-0-0-0-------------------||

VERSE:

Gtr. 1 & 2
  PM.....   PM.......
D-----------------------------------------|-------------||
A-----------------------------------------|-------------||
F-----------------------------------------|-------------||
C-0-0-0-0---0-0-0-0-0-------9/10/9-8/10---|-9/10/9-10---||
G-0-0-0-0---0-0-0-0-0-------7/ 8/7-8/10---|-7/ 8/7-10---||
C-0-0-0-0---0-0-0-0-0--------------8/10---|--------10---||

  PM.....   PM.......
D-----------------------------------------||
A-----------------------------------------||
F-----------------------------------------||
C-8-8-8-8---8-8-8-8-8-------9/10/9-8/10---||
G-8-8-8-8---8-8-8-8-8-------7/ 8/7-8/10---||
C-8-8-8-8---8-8-8-8-8--------------8/10---||

CHORUS:

D--------------------------------------------------||
A-10-10-10-10-10-10-10-10-10-10-10-10-10-10-10-10--||
F-10-10-10-10-10-10-10-10-10-10-10-10-10-10-10-10--||
C-8--8--8--8--8--8--8--8--8--8--8--8--8--8--8--8---||
G-8--8--8--8--8--8--8--8--8--8--8--8--8--8--8--8---||
C-8--8--8--8--8--8--8--8--8--8--8--8--8--8--8--8---||

D--------------------------------------------------||
A-10-10-10-10-10-10-10-10-10-10-10-10-10-10-10-10--||
F-10-10-10-10-10-10-10-10-10-10-10-10-10-10-10-10--||
C-0--0--0--0--0--0--0--0--0--0--0--0--0--0--0--0---||
G-0--0--0--0--0--0--0--0--0--0--0--0--0--0--0--0---||
C-0--0--0--0--0--0--0--0--0--0--0--0--0--0--0--0---||
[ Tab from: http://www.guitartabs.cc/tabs/k/killswitch_engage/the_end_of_heartache_tab_ver_6.html ]
D--------------------------------------------------||
A--------------------------------------------------||
F-12-12-12-12-12-12-12-12-12-12-12-12-12-12-12-12--||
C-10-10-10-10-10-10-10-10-10-10-10-10-10-10-10-10--||
G-10-10-10-10-10-10-10-10-10-10-10-10-10-10-10-10--||
C-10-10-10-10-10-10-10-10-10-10-10-10-10-10-10-10--||

D--------------------------------------------------||
A-10-10-10-10-10-10-10-10-10-10-10-10-10-10-10-10--||
F-10-10-10-10-10-10-10-10-10-10-10-10-10-10-10-10--||
C-8--8--8--8--8--8--8--8--7--7--7--7--7--7--7--7---||
G-8--8--8--8--8--8--8--8--7--7--7--7--7--7--7--7---||
C-8--8--8--8--8--8--8--8--7--7--7--7--7--7--7--7---||

INTERLUDE:

  PM.....    PM................................................
D-----------------------------------------------------------------||
A-----------------------------------------------------------------||
F-----------------------------------------------------------------||
C-0-0-0-0----0-0-0-0-0-10-0-8-0-7-0-8-0-5-0-7-0-3-0-5-0-2-0-3-0---||
G-0-0-0-0----0-0-0-0-0--------------------------------------------||
C-0-0-0-0----0-0-0-0-0--------------------------------------------||

  
  PM.....    PM.......                                 ~~~~~~~~~~~
D-----------------------------------------------------------------||
A-----------------------------------------------------------------||
F-----------------------------------------------------5*----------||
C-0-0-0-0----0-0-0-0-0-10-0-8-0-7-0-8-0-5-0-7-0-3-0-5-------------||
G-0-0-0-0----0-0-0-0-0--------------------------------------------||
C-0-0-0-0----0-0-0-0-0--------------------------------------------||

  PM.....    PM.......
D-----------------------------------------------------------------||
A-----------------------------------------------------------------||
F-----------------------------------------------------------------||
C-8-8-8-8----8-8-8-8-8-10-0-8-0-7-0-8-0-5-0-7-0-3-0-5-0-2-0-3-0---||
G-8-8-8-8----8-8-8-8-8--------------------------------------------||
C-8-8-8-8----8-8-8-8-8--------------------------------------------||


  PM.....    PM.......                                 ~~~~~~~~~~~
D-----------------------------------------------------------------||
A-----------------------------------------------------------------||
F-----------------------------------------------------5*----------||
C-8-8-8-8----8-8-8-8-8-10-0-8-0-7-0-8-0-5-0-7-0-3-0-5-------------||
G-8-8-8-8----8-8-8-8-8--------------------------------------------||
C-8-8-8-8----8-8-8-8-8--------------------------------------------||

BREAKDOWN (CLEAN):

D--------------------------------------------------||
A-11-11-11-11-11-11-11-11-11-11-11-11-11-11-11-11--||
F-10-10-10-10-10-10-10-10-10-10-10-10-10-10-10-10--||
C-8--8--8--8--8--8--8--8--8--8--8--8--8--8--8--8---||
G-8--8--8--8--8--8--8--8--8--8--8--8--8--8--8--8---||
C-8--8--8--8--8--8--8--8--8--8--8--8--8--8--8--8---||

D--------------------------------------------------||
A-10-10-10-10-10-10-10-10-10-10-10-10-10-10-10-10--||
F-7--7--7--7--7--7--7--7--7--7--7--7--7--7--7--7---||
C-7--7--7--7--7--7--7--7--7--7--7--7--7--7--7--7---||
G-5--5--5--5--5--5--5--5--5--5--5--5--5--5--5--5---||
C--------------------------------------------------||

D--------------------------------------------------||
A-8--8--8--8--8--8--8--8--8--8--8--8--8--8--8--8---||
F-5--5--5--5--5--5--5--5--5--5--5--5--5--5--5--5---||
C-5--5--5--5--5--5--5--5--5--5--5--5--5--5--5--5---||
G-3--3--3--3--3--3--3--3--3--3--3--3--3--3--3--3---||
C--------------------------------------------------||

D-------------------------|------------------------||
A-11-11-11-11-11-11-11-11-|------------------------||
F-10-10-10-10-10-10-10-10-|------------------------||
C-8--8--8--8--8--8--8--8--|------------------------||
G-8--8--8--8--8--8--8--8--|X~~~~~~~~~~~~~~~~~~~~~~~||
C-8--8--8--8--8--8--8--8--|X~~~~~~~~~~~~~~~~~~~~~~~||

OUTRO:

D------------------------||
A------------------------||
F------------------------||
C-0-0-0-0----0-0-0-0-0---||
G-0-0-0-0----0-0-0-0-0---||
C-0-0-0-0----0-0-0-0-0---||


KEY: PM - PALM MUTE
      * - PINCH HARMONIC (PICK SQUEAL)
      ~ - VIBRATO
      H - HAMMER-ON
      P - PULL-OFF
     X~ - PICK SLIDE
Comments