Killswitch Engage - The End Of Heartache Chords & Tabs

 

The End Of Heartache Chords & Tabs

Killswitch Engage Chords & Tabs

Version: 5 Type: Tab 0 ratings
1 star 2 stars 3 stars 4 stars 5 stars
comments

The End Of Heartache Tab

   
End of heartache by Killswitch Engage:
Tabbed by keiron
kingkeiron69@hotmail.com


.  = palm mute
ph = pinch harmonic
h  = hammer on
\/\= bend harmonic
b  = bend
\  = slide


These may not be in order but everything you need is here so figure the order out yourself.


|-------------------------------------------|
|-------------------------------------------|
|7--7--7--7--9------------------------------|
|-7--7--7--7--9-----------------------------|
|--5--5--5--5--7----------------------------|
|-------------------------------------------|
   .  .  .  .


|-------------------------------------------------|
|-------------------------------------------------|
|-------------------------------------------------|
|-----------------5\4-3/4-------------------5\4-3-|
|0000-000-00--------------0000-000-00-------------|
|0000-000-00--------------0000-000-00-------------|
 .... ... ..              .... ... ..


|-------------------------------------------------|
|-------------------------------------------------|
|-------------------------------------------------|
|-----------------5\4-3/4-------------------------|
|2222-222-22--------------2222-222-22-------1-2-2-|
|2222-222-22--------------2222-222-22-------1-2-2-|
 .... ... ..              .... ... ..


|------------------------------------------------|
|------------------------------------------------|
|------------------------------------------------|
|------------------------------------------------|
|0000-0000000-0000000-000------------------------|
|0000-0000000-0000000-000--7h98h95h76h7----------|
 .... ....... ....... ...


|------------------------------------------------|
|------------------------------------------------|
|------------------------------------------------|
|------------------------------------------------|
|0000-0000000-0000000-000--79h89h57h67-----------|
|0000-0000000-0000000-000------------------------|
 .... ....... ....... ...
|------------------------------------------------|
|------------------------------------------------|
|------------------------------------------------|
|------------------------------------------------|
|0000-0000000-0000000-000------------------------|
|0000-0000000-0000000-000--7h98h95h76h7----------|
 .... ....... ....... ...


|------------------------------------------------|
|------------------------------------------------|
|------------------------------------------------|
|------------------------------------------------|
|0000-0000000-0000000-000-1-2-2------------------|
|0000-0000000-0000000-000-1-2-2------------------|
 .... ....... ....... ...

|-------------------------------------------------|
|-------------------------------------------------|
|-------------------------------------------------|
|-----------------5\4-3/4-------------------5\4-3-|
|0000-000-00--------------0000-000-00-------------|
|0000-000-00--------------0000-000-00-------------|
 .... ... ..              .... ... ..


|-------------------------------------------------|
|-------------------------------------------------|
|-------------------------------------------------|
|-----------------5\4-3/4-------------------------|
|2222-222-22--------------2222-222-22-------1-2-2-|
|2222-222-22--------------2222-222-22-------1-2-2-|
 .... ... ..              .... ... ..


|------------------------------------------------|
|------------------------------------------------|
|------------------------------------------------|
|11-11-11-11-11-11-11-11-11-11-11-11-11-11-11-11-|
|11-11-11-11-11-11-11-11-11-11-11-11-11-11-11-11-|
|-9--9--9--9--9--9--9--9--9--9--9--9--9--9--9--9-|

|------------------------------------------------|
|------------------------------------------------|
|------------------------------------------------|
|-9--9--9--9--9--9--9--9--9--9--9--9--9--9--9--9-|
|-9--9--9--9--9--9--9--9--9--9--9--9--9--9--9--9-|
|-7--7--7--7--7--7--7--7--7--7--7--7--7--7--7--7-|
[ Tab from: http://www.guitartabs.cc/tabs/k/killswitch_engage/the_end_of_heartache_tab_ver_5.html ]
|------------------------------------------------|
|------------------------------------------------|
|------------------------------------------------|
|14-14-14-14-14-14-14-14-14-14-14-14-14-15-14-13-|
|14-14-14-14-14-14-14-14-14-14-14-14-14-15-14-13-|
|12-12-12-12-12-12-12-12-12-12-12-12-12-13-12-11-|

|------------------------------------------------|
|------------------------------------------------|
|------------------------------------------------|
|12-12-12-12-12-12-12-12-13-13-13-13-13-13-13-13-|
|12-12-12-12-12-12-12-12-13-13-13-13-13-13-13-13-|
|10-10-10-10-10-10-10-10-11-11-11-11-11-11-11-11-|

|------------------------------------------------|
|------------------------------------------------|
|------------------------------------------------|
|--------------------------------------5\4-3/4---|
|00-77-1010-88-00-66-99-77-00-55-88-66-----------|
|------------------------------------------------|
 .. ..  . . .. .. .. .. .. .. .. .. ..

|-------------------------------------------------|
|-------------------------------------------------|
|------------------------------------------5------|ph/\/
|--------------------------------------5\4--------|
|00-77-1010-88-00-66-99-77-00-55-88-66------------|
|-------------------------------------------------|
 .. .. . .  .. .. .. .. .. .. .. .. ..
         Gradually release palm mute

|------------------------------------------------|
|------------------------------------------------|
|------------------------------------------------|
|------------------------------------------------|
|00-77-1010-88-00-66-99-77-00-55-88-66-1-2-2-----|
|--------------------------------------1-2-2-----|
 .. .. . .  .. .. .. .. .. .. .. .. ..


|-------------------------------------------------|
|-------------------------------------------------|
|-------------------------------------------------|
|-----------------5\4-3/4-------------------5\4-3-|
|0000-000-00--------------0000-000-00-------------|
|0000-000-00--------------0000-000-00-------------|
 .... ... ..              .... ... ..


|-------------------------------------------------|
|-------------------------------------------------|
|-------------------------------------------------|
|-----------------5\4-3/4-------------------------|
|2222-222-22--------------2222-222-22-------1-2-2-|
|2222-222-22--------------2222-222-22-------1-2-2-|
 .... ... ..              .... ... ..


|------------------------------------------------|
|------------------------------------------------|
|------------------------------------------------|
|------------------------------------------------|
|------------0-000-000-000-0001-00001------------|
|5b3-4-2-3b1-0-000-000-000-0001-00001------------|
             . ... ... ... ...  ....

|------------------------------------------------|
|------------------------------------------------|
|------------------------------------------------|
|------------------------------------------------|
|--3-4-2---1-0-000-000-000-0001-0000-------------|
|5b3-4-2-3b1-0-000-000-000-0001-0000-------------|
             . ... ... ... ...  ....


|----------------------------------------------------------------|
|----------------------------------------------------------------|
|--9---9---9---9---9---9---9---9---7---7---7---7---7---7---7---7-|
|9-9-9-9-9-9-9-9-9-9-9-9-9-9-9-9-7-7-7-7-7-7-7-7-7-7-7-7-7-7-7-7-|
|7---7---7---7---7---7---7---7---5---5---5---5---5---5---5---5---|
|----------------------------------------------------------------|


|-----------------------------------------------------------------|
|-----------------------------------------------------------------|
|--12--12--12--12--12--12--1312----10--10--10--10--11--11--11--11-|
|121212121212121212121212121312--10101010101010101111111111111111-|
|10--10--10--10--10--10--10--10--8---8---8---8---9---9---9---9----|
|------------------------------0----------------------------------|
                               .

|------------------------------------------------|
|------------------------------------------------|
|------------------------------------------------|
|------------------------------------------------|
|---0000-00000-----------------------------------|
|12\0000-00000-----------------------------------|
    .... .....
Comments