Killswitch Engage - The End Of Heartache Chords & Tabs

 

The End Of Heartache Chords & Tabs

Killswitch Engage Chords & Tabs

Version: 2 Type: Tab 0 ratings
1 star 2 stars 3 stars 4 stars 5 stars
comments

The End Of Heartache Tab

------------------------------------------------------------------------------------------------
	Band: Killswitch Engage
	Song: The End Of Heartache
	Album: The End Of Heartache
  -------------------------------------------------------------------------------------------------
	Tabber: Hisman (mega_historias@hotmail.com)
  ------------------------------------------------------------------------------------------------

	    Intro Part 1 x2

            Guitar 1 x4  Then: x1                        Guitar 2  x1 
    	e |-------------|------------------------||-------------------------------|
     	B |-------------|------------------------||-------------------------------|
	G |---10-9------|--12-------9--10--9-----||------------12------------12---|  
	D |--------10---|-----9--10----------10--||--0---------10--0---------10---|  
	A |-------------|------------------------||--0---------10--0---------10---|
	D |-------------|------------------------||--0---------10--0---------10---|
  _________________________________________________________________________________________________

            Intro part 2 

	    Guitar 2 x2                  
        e |--------------------------------------------------------------------------------------------------------------|
	B |--------------------------------------------------------------------------------------------------------------|                                                        
	G |--------------------------------------------------------------------------------------------------------------|                                                         
	D |-0000--000--00----------------0000--000--00--------------8888--888--88----------------8888--888--88--8-10-10--|                                                          
	A |-0000--000--00---7*8*7----7---0000--000--00---7*8*7------8888--888--88---7*8*7----7---8888--888--88--8-10-10--|                                              
	D |-0000--000--00---------10-----0000--000--00---------10---8888--888--88---------10-----8888--888--88--8-10-10--|                                                        
	                                                                                                                        
	    Guitar 1 x8                                                                
	e |------------------------------------------------------------------|                                                             
	B |------------------------------------------------------------------|	                                                            
	G |---10-9-----10-9-----10-9-----10-9-----12--------9--10--9---------|                                                                    
	D |-------10-------10-------10--------10-----9--10-----------10------|                                                        
	A |------------------------------------------------------------------|                                                                
	D |------------------------------------------------------------------|                                                                                
  ______________________________________________________________________________________
    

	Pre Verse
	
	Both Guitars x2                             x1          Last time x1    
	e |-------------------------------------|-----------||---------------|
	B |-------------------------------------|-----------||---------------|
	G |-------------------------------------|-----------||---------------|  
	D |-0000-0000000--0000000--00-----------|-----------||-----8--10-10--|
	A |-0000-0000000--0000000--00-----------|-----------||-----8--10-10--|
	D |-0000-0000000--0000000--00---5--0--3-|--8--0--7--||-----8--10-10--|
  __________________________________Tremelo Pick___________________________________


	Verse x2
	
	Both Guitars
	e |---------------------------------------------------------|
	B |---------------------------------------------------------|
	G |---------------------------------------------------------|  
	D |-0000--000--00---------------0000--000--00---------------|
	A |-0000--000--00---7*8*7---7---0000--000--00---7*8*7-------|
	D |-0000--000--00--------10-----0000--000--00---------10----|
	 
	e |--------------------------------------------------------|
	B |--------------------------------------------------------|
	G |--------------------------------------------------------|  
	D |-8888--888--88----------------8888--888--88---8--10-10--|
	A |-8888--888--88---7*8*7----7---8888--888--88---8--10-10--|
	D |-8888--888--88---------10-----8888--888--88---8--10-10--|

  _________________________________________________________________________________
[ Tab from: http://www.guitartabs.cc/tabs/k/killswitch_engage/the_end_of_heartache_tab_ver_2.html ]
	
	Pre Chrous
	
	Both Guitars x2                             x1          Last time x1    
	e |-------------------------------------|-----------||---------------|
	B |-------------------------------------|-----------||---------------|
	G |-------------------------------------|-----------||---------------|  
	D |-0000-0000000--0000000--00-----------|-----------||-----8--10-10--|
	A |-0000-0000000--0000000--00-----------|-----------||-----8--10-10--|
	D |-0000-0000000--0000000--00---5--0--3-|--8--0--7--||-----8--10-10--|
  _________________________________-Tremelo Pick___________________________________


	   Chorus
	
	    Guitar 1 x2 
	e |---------------------------------------------------------|
	B |---------------------------------------------------------|
	G |---10---2----12---10---12--------------------------------|  
	D |----8---0----10----8---10--------------------------------|
	A |----8---0----10----8---10--------------------------------|
	D |----8---0----10----8---10--------------------------------|
          
            Guitar 2 x2                                                                       
        e |---------------------------------------------------------|
	B |---------------------------------------------------------|
	G |---10---14---12---10---12--------------------------------|  
	D |----8---12---10----8---10--------------------------------|
	A |----8---12---10----8---10--------------------------------|
	D |----8---12---10----8---10--------------------------------|                                
                                                                               
  _______________________________________________________________________________
	
	
	   After Chrous
 
	   Guitar 1  palm mute   1st time                    2nd time
	e |------------------------------------------------||---------|
	B |------------------------------------------------||---------|
	G |------------------------------------------------||---------| 
	D |------------------------------------------------||---------| x4
	A |----15-13-15-13-12-13-12-10-12-10-8-10-8-7-8----||--*7-----|
	D |-12---------------------------------------------||---------|
  
	   Guitar 2 same that the first verse x2
  ______________________________________________________________________________
	
	Back to verse
	
	Then pre chorus
	
	Then chorus (both guitars) x2	
  _______________________________________________________________________________
            
           Metal part

	    	Both Guitars x4             
	e |-----------------------------|
	B |-----------------------------|
	G |-----------------------------| 
	D |--------------0-00-1--0-00-1-| 
	A |--------------0-00-1--0-00-1-|
	D |-5-0-5-0-3-0--0-00-1--0-00-1-|

	
	   Guitar 1  Speed up tempo x4     
	e |-----------------------------|
	B |-----------------------------|
	G |-----------------------------| 
	D |-5-0-5-0-3-0--0-00-1--0-00-1-| 
	A |-5-0-5-0-3-0--0-00-1--0-00-1-|
	D |-5-0-5-0-3-0--0-00-1--0-00-1-|
	
	
	   Guitar 2  Speed up tempo (at same time of guitar 1)
	e |----------------------------------------------|
	B |----------------------------------------------|
	G |----7-----------10---------------7------------|  
	D |----x--x2--------x--x1-----------x--x2--------|
	A |----5------------8---------------5------------|
	D |----------------------------------------------|
	
  _________________________________________________________________________________


	   Bridge

	     Guitar 1
	e |------------------------------------------------------------|
	B |---11----------10----------8----------11----------13--------|
	G |-10---x8-----10---x8-----10--x8-----10---x4-----12---x4-----|  
	D |------------------------------------------------------------|
	A |------------------------------------------------------------|
	D |------------------------------------------------------------|
	
			
        1st Chorus (both guitars) x1
   -----------------------------------------------------------------------------            
	2nd Chorus (same guitar 1) x1
        
             Guitar 2 2nd chorus x1                   
        e |------------------------------------------------------------------|
	B |------------------------------------------------------------------|
	G |--15----14----14-17-14-12-----12-14-12-10-15----17----------------|  
	D |---x-----x-----x--x--x--x------x--x--x--x--x-----x----------------|
	A |--13----12----12-15-12-10-----10-12-10--8-13----15----------------|
	D |------------------------------------------------------------------|   
	
	Last part x1 
	
	e |------------------|
	B |------------------|
	G |------------------|  
	D |--0000--000--00---|
	A |--0000--000--00---|
	D |--0000--000--00---|
Comments