Killswitch Engage - Temple From The Within Chords & Tabs

 

Temple From The Within Chords & Tabs

Killswitch Engage Chords & Tabs

Version: 2 Type: Tab 0 ratings
1 star 2 stars 3 stars 4 stars 5 stars
comments

Temple From The Within Tab

   
under_dose95@yahoo.com
============================================================================

                      Temple From The Within
                       By Killswitch Engage


============================================================================

Tabbed by under_dose


I noticed that no one has tabbed this song which is crime cos dis song is amazin
and is an amazin play so i thought i might as well do it. I pretty sure dis tab
is 100% perfect but u never know. Enjoy!

Tuning:DADGBE

| /  slide up
| \  slide down
| h  hammer-on
| p  pull-off
| ~  vibrato
| +  harmonic
| x  Mute note


intro:

e|--------------------------------------------------------------|
G|--------------------------------------------------------------|
D|--7/8\7--------------7-------7/8\7-------------7--------------| x4
A|--5/6\5--00000----8--5--5-8---------00000---8--5--5-8--2-3----|
D|---------00000----8-----5-8---------00000---8-----5-8--2-3----|
           .....                      .....

e|------------------------------------------|
G|------------------------------------------|
B|---7777777777777777-------------33333333--|
D|---8888888888888888-------------11111111--| x4
A|---5555555555555555--00000000-------------|
D|---------------------00000000-------------|

after u do that do the intro again but this time do it x5

============================================================================

Chorus:

e|------------------------------------------|
B|------------------------------------------|
G|----14-14-14-12-------------10--10-10-10--|
D|-----------------14---10h12-12--12-12-12--| x2
A|----12-12-12-12--12---12------------------|
D|------------------------------------------|

e|-------------------------------------------------------|
B|-------------------------------------------------------|
G|----12-12-12-10------------1212---9--9----5555-5555-55-|
D|-----------------10--10h12-1010--10-10----8888-8888-88-|
A|----10-10-10-10--10--10----1212--10--7----7777-7777-77-|
D|-------------------------------------------------------|

Do the whole chorus twice

============================================================================

Breakdown riff:
At the start of this riff the bassist does it while the begins it the guitarist
does this
[ Tab from: http://www.guitartabs.cc/tabs/k/killswitch_engage/temple_from_the_within_tab_ver_2.html ]
e|-----|
B|-----|
G|--7--|
D|--7--| 
A|-----|
D|-----|
    
the guitarist lets this chord fade out. Before the guitarist joins in with the
bassist he places his pick on the top of the top D string and has his left on
the 8th on the top string,then he scratches the string by moving his pick up
the fret board. If your confused i don't blame u ,i nearly got confused myself
writing da bloody thing.

After that the guitarist joins in with the bassist

e|--------------------------------------|
B|--------------------------------------|
G|--------------------------------------|
D|--------------------------------------| x9
A|---000----3/4\3--00-0-0---1---00-0-0--|
D|---000----3/4\3--00-0-0---1---00-0-0--|
     ...

repeat the chorus

============================================================================
this part usually takes two guitars. Do this part 7 times.

guitar I

e|-------------------------------------|
B|-------------------------------------|
G|---7777------------7777--------------|
D|---8888------------8888--------------|
A|---5555------------5555--------------|
D|-------------------------------------|

guitar II

e|-------------------------------------|
B|-------------------------------------|
G|-------------------------------------|
D|-------------------------------------| 
A|-----------00----------------000000--|
D|-----------00----------------000000--|
             ..                ......


on the fifth time, guitar one changes slightly, guitar two joins in on the last chord.

guitar I

e|------------------------------------------------|
B|------------------------------------------------|
G|---7777------------7777---------------7---------|
D|---8888------------8888---------------8---------| hold the last chord
A|---5555------------5555---------------5---------|
D|------------------------------------------------|

Guitar II

e|------------------------------------------------|
B|------------------------------------------------|
G|--------------------------------------7---------|
D|--------------------------------------8---------|
A|------------00-----------------------5----------|
D|------------00----------------------------------|



============================================================================



e|------------------------------------------|
G|------------------------------------------|
B|---7777777777777777-------------33333333--|
D|---8888888888888888-------------11111111--| x4
A|---5555555555555555--00000000-------------|
D|---------------------00000000-------------|



e|----------------------|
G|----------------------|
B|----------------------|
D|----------------------| x19
A|---00----000000-------|
D|---00----000000-------|
Comments