Killswitch Engage - Take This Oath Chords & Tabs

 

Take This Oath Chords & Tabs

Killswitch Engage Chords & Tabs

Version: 1 Type: Tab 0 ratings
1 star 2 stars 3 stars 4 stars 5 stars
comments

Take This Oath Tab

Artist: Killswitch Engage
Title: Take this oath
Album: The end of heartache

Drop C Tuning

. = palm mute
p = pull off
/ = slide down
\ = slide up




gtr 1+2
x2
|--------------------------------------------------------------------------|
|--------------------------------------------------------------------------|
|--------------------------------------------------------------------------|
|--------------------------------------------------------------------------|
|-6-5-0-3--6-5-0-3-5-0-8-0--6-5-0-3-5-0-8-0--0-0-0-------------------------|
|-6-5-0-3--6-5-0-3-5-0-8-0--6-5-0-3-5-0-8-0--0-0-0-------------------------|
  . . .    . . .     .      . .       .      . .

gtr 1+2
x2
|--------------------------------------------------------------------------|
|--------------------------------------------------------------------------|
|--------------------------------------------------------------------------|
|--------------------------------------------------------------------------|
|-6/5-0-3--6/5-0-3-5-0-8-0-0-0-6/5-0-3-5-0-8-0--0-0-0----------------------|
|-6/5-0-3--6/5-0-3-5-0-8-0-0-0-6/5-0-3-5-0-8-0--0-0-0----------------------|
      .        .     .     . .     .     .      . .

gtr 1+2
x2
|--------------------------------------------------------------------------|
|--------------------------------------------------------------------------|
|--------------------------------------------------------------------------|
|--------------------------------------------------------------------------|
|-6-5-0-3-0-6-5-0-3-5-0-8-0-0-0-6-5-0-3-5-0-8-0--0-0-0---------------------|
|-6-5-0-3-0-6-5-0-3-5-0-8-0-0-0-6-5-0-3-5-0-8-0--0-0-0---------------------|
  . . .   . . . .     .     . . . . .     .      . .

gtr 1
|--------------------------------------------------------------------------|
|--------------------------------------------------------------------------|
|--------------------------------------------------------------------------|
|--------------------------------------------------------------------------|
|-3-----5-----6---3-----5----6----------5-----6---------5-----6------------|
|---5-5---5-5---5---5-5---5-5---5-6-6-6--6-6----6-3-3-3---3-3---3----------|
|   . .   . .   .   . .   . .   .   . .  . .    .   . .   . .   .          |
|                                                                          |
|gtr 2                                                                     |
|--------------------------------------------------------------------------|
|--------------------------------------------------------------------------|
|--------------------------------------------------------------------------|
|--------------------------------------------------------------------------|
|-5-------------------------------6---------------3------------------------|
|-5-------------------------------6---------------3------------------------|


gtr 1
|--------------------------------------------------------------------------|
|--------------------------------------------------------------------------|
|--------------------------------------------------------------------------|
|--------------------------------------------------------------------------|
|-3-----5-----6---3-----5----6----------5-----6---\10-8-7-5-8-7-5-5--------|
|---5-5---5-5---5---5-5---5-5---5-6-6-6--6-6----6--------------------------|
|   . .   . .   .   . .   . .   .   . .  . .    .     . . .   . . .        | 

|                                                                          |
|gtr 2                                                                     |
|--------------------------------------------------------------------------|
|--------------------------------------------------------------------------|
|--------------------------------------------------------------------------|
|-5------------------------------------------------------------------------|
|-3-------------------------------6---------------3------------------------|
|---------------------------------6---------------3------------------------|


gtr 1+2
|--------------------------------------------------------------------------
|--------------------------------------------------------------------------
|--------------------------------------------------------------------------
|--------------------------------------------------------------------------
|-3-----5-----6---3-----5----6----------5-----6---------5-----6------------
|---5-5---5-5---5---5-5---5-5---5-6-6-6--6-6----6-3-3-3---3-3---3----------
    . .   . .   .   . .   . .   .   . .  . .    .   . .   . .   .          


--------------------------------------------------------------------------|
--------------------------------------------------------------------------|
--------------------------------------------------------------------------|
--------------------------------------------------------------------------|
-3-----5-----6---3-----5----6----------5-----6---\10-8-7-5-8-7-5-5--------|
---5-5---5-5---5---5-5---5-5---5-6-6-6--6-6----6--------------------------|
    . .   . .   .   . .   . .   .   . .  . .    .     . . .   . . .        


gtr 1+2
x4
|--------------------------------------------------------------------------|
|--------------------------------------------------------------------------|
|--------------------------------------------------------------------------|
|---------------5---5--3--5------------------------------------------------|
|--6------3-----3--0--0--0--0-5-6-5-0-5-7----------------------------------|
|--6------3-------------------------------6--------------------------------|
                   .  .  .  . . . . .     .
gtr 1
|--------------------------------------------------------------------------|
|--------------------------------------------------------------------------|
|--------------------------------------------------------------------------|
|--------------------------------------------------------------------------|
|-3-----5-----6---3-----5----6----------5-----6---------5-----6------------|
|---5-5---5-5---5---5-5---5-5---5-6-6-6--6-6----6-3-3-3---3-3---3----------|
|   . .   . .   .   . .   . .   .   . .  . .    .   . .   . .   .          | 
[ Tab from: http://www.guitartabs.cc/tabs/k/killswitch_engage/take_this_oath_tab.html ]
|                                                                          |
|gtr 2                                                                     |
|--------------------------------------------------------------------------|
|--------------------------------------------------------------------------|
|--------------------------------------------------------------------------|
|--------------------------------------------------------------------------|
|-5-5-5-5-5-5--5-5-5-5-5-5-5-5----6-6-6-6-6-6-6---3-3-3-3-3-3-3------------|
|-5-5-5-5-5-5--5-5-5-5-5-5-5-5----6-6-6-6-6-6-6---3-3-3-3-3-3-3------------|
    . .   . .      . .   . .        . .   . .       . .   . .

gtr 1
|--------------------------------------------------------------------------|
|--------------------------------------------------------------------------|
|--------------------------------------------------------------------------|
|--------------------------------------------------------------------------|
|-3-----5-----6---3-----5----6----------5-----6---\10-8-7-5-8-7-5-5--------|
|---5-5---5-5---5---5-5---5-5---5-6-6-6--6-6----6--------------------------|
|   . .   . .   .   . .   . .   .   . .  . .    .     . . .   . . .        | 

|                                                                          |
|gtr 2                                                                     |
|--------------------------------------------------------------------------|
|--------------------------------------------------------------------------|
|--------------------------------------------------------------------------|
|--------------------------------------------------------------------------|
|-5-5-5-5-5-5--5-5-5-5-5-5-5-5----6-6-6-6-6-6-6---3------------------------|
|-5-5-5-5-5-5--5-5-5-5-5-5-5-5----6-6-6-6-6-6-6---3------------------------|
    . .   . .      . .   . .        . .   . .       

gtr 1+2
x4
|--------------------------------------------------------------------------|
|--------------------------------------------------------------------------|
|--------------------------------------------------------------------------|
|---------------5---5--3--5------------------------------------------------|
|--6------3-----3--0--0--0--0-5-6-5-0-5-7----------------------------------|
|--6------3-------------------------------6--------------------------------|
                   .  .  .  . . . . .     .

gtr 1+ 2(?)
|--------------------------------------------------------------------------|
|--------------------------------------------------------------------------|
|--------------------------------------------------------------------------|
|-0-------------------------------------0----------------------------------|
|-0-------------------------------------0----------------------------------|
|-0-------------------------------------0----------------------------------|


gtr 1+2
|---------------------------------------------------------------------------
|---------------------------------------------------------------------------
|---------------------------------------------------------------------------
|--3p0---0-----3p0----0-----3p0---0-----3p0----0------2p0---------2p0-------
|------0---0-0------0---0-0-----0---0-0------0---0-0------0-3-0-0----0-3-0-0
|---------------------------------------------------------------------------
       .   . .      .   . .     .   . .      .   . .      .   . .    .   . . 
---------------------------------------------------------------------------|
---------------------------------------------------------------------------|
---------------------------------------------------------------------------|
2p0---------2p0---------5p0---0-----5p0---0-----5p0---0-----5p0---0--------|
----0-3-0-0-----0-3-0-0-----1---1-1-----1---1-1-----1---1-1-----1---1-1----|
---------------------------------------------------------------------------|
    .   . .     .   . .     .   . .     .   . .     .   . .     .   . .

gtr 1+2
|--------------------------------------------------------------------------|
|--------------------------------------------------------------------------|
|--------------------------------------------------------------------------|
|--------------------------------------------------------------------------|
|-0------------------------------------------------------------------------|
|-0------------------------------------------------------------------------|


gtr 1
|--------------------------------------------------------------------------|
|--------------------------------------------------------------------------|
|--------------------------------------------------------------------------|
|--------------------------------------------------------------------------|
|-0-0-0-0-0-0-0--0--0------------------------0-0-0-0-0-0-0--0--0-----------|
|-0-0-0-0-0-0-0--0--0------------------------0-0-0-0-0-0-0--0--0-----------|
  . . . . . . .  .  .                        . . . . . . .  .  .

gtr 1
|--------------------------------------------------------------------------|
|--------------------------------------------------------------------------|
|--------------------------------------------------------------------------|
|--------------------------------------------------------------------------|
|-0-0-0-0-0-0-0--0--0------------------------0-0-0-0-0-0-0--0--0-----------|
|-0-0-0-0-0-0-0--0--0------------------------0-0-0-0-0-0-0--0--0-----------|
| . . . . . . .  .  .                        . . . . . . .  .  .           | 

|                                                                          |
|gtr 2                                                                     |
|--------------------------------------------------------------------------|
|--------------------------------------------------------------------------|
|--------------------------------------------------------------------------|
|--3p0---0-----3p0----0-----3p0---0-----3p0----0---------------------------|
|------0---0-0------0---0-0-----0---0-0------0---0-0-----------------------|
|--------------------------------------------------------------------------|


gtr 1+2 
x2
|--------------------------------------------------------------------------|
|--------------------------------------------------------------------------|
|--------------------------------------------------------------------------|
|--------------------------------------------------------------------------|
|-6/5-0-3--6/5-0-3-5-0-8-0-0-0-6/5-0-3-5-0-8-0--0-0-0----------------------|
|-6/5-0-3--6/5-0-3-5-0-8-0-0-0-6/5-0-3-5-0-8-0--0-0-0----------------------|
      .        .     .     . .     .     .      . .

gtr 1+2 
x2
|--------------------------------------------------------------------------|
|--------------------------------------------------------------------------|
|--------------------------------------------------------------------------|
|--------------------------------------------------------------------------|
|-6-5-0-3-0-6-5-0-3-5-0-8-0-0-0-6-5-0-3-5-0-8-0--0-0-0---------------------|
|-6-5-0-3-0-6-5-0-3-5-0-8-0-0-0-6-5-0-3-5-0-8-0--0-0-0---------------------|
  . . .   . . . .     .     . . . . .     .      . .
Comments