Killswitch Engage - Rusted Embrace Chords & Tabs

 

Rusted Embrace Chords & Tabs

Killswitch Engage Chords & Tabs

Version: 1 Type: Tab 0 ratings
1 star 2 stars 3 stars 4 stars 5 stars
comments

Rusted Embrace Tab

Band-Killswitch Engage
Song-Rusted Embrace
Album-Killswitch Engage
Instrument-Guitar

Tuning- DGCFAD

\ -Slide up
/ -Slide down

|------------------|
|------------------|
|------------------|
|-------3-------4--|
|-4-3-2-1-4-3-2-2--|
|-2-1-0---2-1-0----|
PM.....   .....

|--------------------------------------------------------------------|
|--------------------------------------------------------------------|
|--------------------------------------------------------------------|
|-------------------------------------------------------------3h4p3--|
|-------333333----1111114444443333------333333----111111444444-----4-|
|-111111------4444----------------111111------4444-------------------|
PM    ..      ....                    ..      ....          ..

|-------------------------------------|
|-------------------------------------|
|-------------------------------------|
|-------5----------3-----6-----5/6\5--|
|-3-----3-----6----1---114---443/4\3--|
|-1---11----444--44-----------------4-|
PM    ..    ..   ..    ..    ..

|--------------------------------------|
|--------------------------------------|
|--------------------------------------|
|--------------------6--5--3-----------|
|----3--1---------444-44-44-446443-----|
|-111-11-114113134---------------------|
PM... .. .. .. .  ... .. .. .. .
[ Tab from: http://www.guitartabs.cc/tabs/k/killswitch_engage/rusted_embrace_tab.html ]
|-------------------------------------|
|-------------------------------------|
|-------------------------------------|
|-10\-------8\-------6--6--5--3-------|3x
|--8\-5-6-2-6\-5-6-2-444-44-44-446443-|
|-----3-4-0----3-4-0------------------|
PM    .....    .....  .. .. .. .. .

|-------------------------------------|
|-------------------------------------|
|-------------------------------------|
|-10\-------8\-------6-----------6-6--|
|--8\-5-6-5-6\-5-6-5-4-4-4-4-4-4-4-4--|
|-----3-4-3----3-4-3-4-4-4-4-4-4-4-4--|
PM    .....    ..... ............

|-------------------------------------------------------------|
|-------------------------------------------------------------|
|---------111111111010------------------10101010\99-----------|
|-3------------------------------2----------------------------|
|-3--------9-9-9-9\8-8---3-4-3-3-2-------8-8-8-8\77---3-4-3-2-|
|-1----------------------3-3-3-1-0--------------------3-3-3-0-|
Pm                       .......                      .......

|--------------------------------------|
|--------------------------------------|
|---------111111111010-----------------|
|-3------------------------------2-----|
|-3--------9-9-9-9\8-8---3-4-3-3-2-----|
|-1----------------------3-3-3-1-0-----|
PM                       .......

|-------------------------------------------------|
|-------------------------------------------------|
|------------9-----------9------------------------|
|-2----------9-----------9---------9--------------|
|-2----------7-----------7---------7-2-2-2-2-2-x\-|
|-0--------------------------------0-0-0-0-0-0-x\-|
PM                                   .........

|---------------------------------|
|---------------------------------|
|---------------------------------|
|-------3-------4-------5-5---4---|
|-4-3-2-1-4-3-2-2-4-3-2-3-3-6-2-5-|
|-2-1-0---2-1-0---2-1-0-----4---3-|
Pm.....   .....   .....
Comments