Killswitch Engage - Rose Of Sharyn Chords & Tabs

 

Rose Of Sharyn Chords & Tabs

Killswitch Engage Chords & Tabs

Version: 1 Type: Tab 1 rating
1 star 2 stars 3 stars 4 stars 5 stars
comments

Rose Of Sharyn Tab

   
Band- Killswitch Engage
Song- Rose Of Sharyn
Album- The End Of Heartache (get the CD....Best one yet!)
Tuning- CGCFAD
Tabbed by : Joe Mahoney

I tabbed out the parts in order, just figure out how many times you have to play them

Intro/Verse (Both Guitars)
D|-----|-----------------------------------------------------------------|
A|-----|-----------------------------------------------------------------|
F|-----|-----------------------------------------------------------------|
C|-----|--------------8-7-----------------------------8-7h8p7------------|
G|-12-|0-------------6-5----------1---0-----------0---------7h8p7-------|
C|-12-|0-0-0-0-0-0-0--0-0-0-0-0-0-1-0-0-0-0-0-0-0-0--------------8h10p8-|
PM        . . . . . .  . . . . . .   .   . . . . . 

Interlude 1 (Both Guitars)
D|----------------------------------------------------------------|
A|----------------------------------------------------------------|
F|----------------------------------------------------------------|
C|-------------------------------------------------------10----10-|
G|--5-7-8--5-7-8--5-7-8--5-7-8--5-7-8--5-7-8--5-7-8--7-8---7-8----|
C|-0-0-0--0-0-0--8-8-8--5-5-5--0-0-0--0-0-0--8-8-8----------------|
PM . . .  . . .  . . .  . . .  . . .  . . .  . . .   . .   . .
D|--------------------------------------------------------------|
A|--------------------------------------------------------------|
F|--------------------------------------------------------------|
C|------------------------------------------------------10--7\-|
G|--5-7-8--5-7-8--5-7-8--5-7-8--5-7-8--5-7-8--5-7-8--7-8----7\-|
C|-0-0-0--0-0-0--8-8-8--5-5-5--0-0-0--0-0-0--8-8-8----------7\-|
PM . . .  . . .  . . .  . . .  . . .  . . .  . . .   . . 

Pre-Chorus Gtr.1
D|--------------------------------------------------------------|
A|--------------------------------------------------------------|
F|--------------------------------------------------------------|
C|-1------------------------------3-----------------------------|
G|-1-1-1-1-1-1-1-1-1-1-1-1-1-1-1--3-3-3-3-3-3-3-3-3-3-3-3-3-3-3-|
C|-1-1-1-1-1-1-1-1-1-1-1-1-1-1-1--3-3-3-3-3-3-3-3-3-3-3-3-3-3-3-|
PM   . . . . . . . . . . . . . .    . . . . . . . . . . . . . . 
D|-----------------------------------------------------------|
A|-----------------------------------------------------------|
F|-----------------------------------------------------------|
C|-5------------------------------8---------------8-8----3-3-|
G|-5-5-5-5-5-5-5-5-5-5-5-5-5-5-5--8-8-8-8-8-8-8-8-8-8-8--3-3-|
C|-5-5-5-5-5-5-5-5-5-5-5-5-5-5-5--8-8-8-8-8-8-8-8-8-8-8--3-3-|
PM   . . . . . . . . . . . . . .    . . . . . . .     .

Pre-Chorus Gtr.2 (repeat as many times as needed)
D|---------------------------------|
A|---------------------------------|
F|-8-8-8-8-8-8-8-8-8-8-8-8-8-8-8-8-|
C|-x-x-x-x-x-x-x-x-x-x-x-x-x-x-x-x-|
G|-6-6-6-6-6-6-6-6-6-6-6-6-6-6-6-6-|
C|---------------------------------|
PM . . . . . . . .       . . 

Verse Gtr.1
D|-----------------------------------------------------------------|
A|-----------------------------------------------------------------|
F|----------------------------------------------8-7h8p7------------|
C|---------------8-7-----------------------------------7h8p7-------|
G|-0-------------6-5----------1---0-----------0-------------8h10p8-|
C|-0-0-0-0-0-0-0--0-0-0-0-0-0-1-0-0-0-0-0-0-0-0--------------------|
PM   . . . . . .  . . . . . .   .   . . . . . 

Verse Gtr. 2
D|-----------------------------------------------------------------|
A|-----------------------------------------------------------------|
F|-----------------------------------------------------------------|
C|--------------8-7-----------------------------8-7h8p7------------|
G|0-------------6-5----------1---0-----------0---------7h8p7-------|
C|0-0-0-0-0-0-0--0-0-0-0-0-0-1-0-0-0-0-0-0-0-0--------------8h10p8-|
PM  . . . . . .  . . . . . .   .   . . . . .
[ Tab from: http://www.guitartabs.cc/tabs/k/killswitch_engage/rose_of_sharyn_tab.html ]
Interlude 1 (Both Guitars)
D|----------------------------------------------------------------|
A|----------------------------------------------------------------|
F|----------------------------------------------------------------|
C|-------------------------------------------------------10----10-|
G|--5-7-8--5-7-8--5-7-8--5-7-8--5-7-8--5-7-8--5-7-8--7-8---7-8----|
C|-0-0-0--0-0-0--8-8-8--5-5-5--0-0-0--0-0-0--8-8-8----------------|
PM . . .  . . .  . . .  . . .  . . .  . . .  . . .   . .   . .
D|---------------------------------------------------------------|
A|---------------------------------------------------------------|
F|---------------------------------------------------------------|
C|-------------------------------------------------------10--7\-|
G|--5-7-8--5-7-8--5-7-8--5-7-8--5-7-8--5-7-8--5-7-8--7-8-----7\-|
C|-0-0-0--0-0-0--8-8-8--5-5-5--0-0-0--0-0-0--8-8-8-----------7\-|
PM . . .  . . .  . . .  . . .  . . .  . . .  . . .   . . 

Pre-Chorus Gtr.1
D|-------------------------------------------------------------|
A|-------------------------------------------------------------|
F|-------------------------------------------------------------|
C|-1-----------------------------3-----------------------------|
G|-1-1-1-1-1-1-1-1-1-1-1-1-1-1-1-3-3-3-3-3-3-3-3-3-3-3-3-3-3-3-|
C|-1-1-1-1-1-1-1-1-1-1-1-1-1-1-1-3-3-3-3-3-3-3-3-3-3-3-3-3-3-3-|
PM   . . . . . . . . . . . . . .   . . . . . . . . . . . . . . 
D|---------------------------------------------------------|
A|---------------------------------------------------------|
F|---------------------------------------------------------|
C|-5-----------------------------8---------------8-8---3-3-|
G|-5-5-5-5-5-5-5-5-5-5-5-5-5-5-5-8-8-8-8-8-8-8-8-8-8-8-3-3-|
C|-5-5-5-5-5-5-5-5-5-5-5-5-5-5-5-8-8-8-8-8-8-8-8-8-8-8-3-3-|
PM   . . . . . . . . . . . . . .   . . . . . . .     .   

Pre-Chorus Gtr.2
D|-----------------------------------------------------------------------------|
A|-----------------------------------------------------------------------------|
F|-8-8-8-8-8-8-8-8-8-8-8-8-8-8-8--10-10-10-10-10-10-10-10-10-10-10-10-10-10-10-|
C|-x-x-x-x-x-x-x-x-x-x-x-x-x-x-x--x--x--x--x--x--x--x--x--x--x--x--x--x--x--x--|
G|-6-6-6-6-6-6-6-6-6-6-6-6-6-6-6--8--8--8--8--8--8--8--8--8--8--8--8--8--8--8--|
C|-----------------------------------------------------------------------------|

D|-----------------------------------------------------------------------------|
A|-----------------------------------------------------------------------------|
F|-7-7-7-7-7-7-7-7-7-7-7-7-7-7-7--10-10-10-10-10-10-10-10-10-10-10-10-10-10-10-|
C|-x-x-x-x-x-x-x-x-x-x-x-x-x-x-x--x--x--x--x--x--x--x--x--x--x--x--x--x--x--x--|
G|-5-5-5-5-5-5-5-5-5-5-5-5-5-5-5--8--8--8--8--8--8--8--8--8--8--8--8--8--8--8--|
C|-----------------------------------------------------------------------------|

Chorus (Both Guitars)
D|-----------------------------------------------------------------------------|
A|-----------------------------------------------------------------------------|
F|-----------------------------------------------------------------------------|
C|-1---8-7-8-7-5-7---3---8-7-8-7-5-7---5----8-00-5----8-00-8----8-00-5--00-3-|
G|-1-------------7---3-------------7---5---7--00-5---7--00-8---7--00-5--00-3-|
C|-1--0-0-0-0-0--7---3--0-0-0-0-0--7---5--0---00-5--0---00-8--0---00-5--00-3-|
PM    . . . . .          . . . . .          ..  ..    ..  ..    ..  ..    ..

Interlude 2 Gtr. 1 (Listen to song for timing)
D|-6--------|
A|--6--6--6-|
F|---5--5---|
C|----------|
G|----------|
C|----------|

Interlude 2 Gtr. 2 (Let notes ring)
D|-----------------------------------------------------|
A|-----------------------------------------------------|
F|-----------------------------------------------------|
C|-----------------------------------------------------|
G|-----------------------------------------------------|
C|-1------------3------------5------------8------------|
 
Chorus (Both Guitars)
D|-----------------------------------------------------------------------------|
A|-----------------------------------------------------------------------------|
F|-----------------------------------------------------------------------------|
C|-1---8-7-8-7-5-7---3---8-7-8-7-5-7---5----8-00-5----8-00-8----8-00-5--00-3-|
G|-1-------------7---3-------------7---5---7--00-5---7--00-8---7--00-5--00-3-|
C|-1--0-0-0-0-0--7---3--0-0-0-0-0--7---5--0---00-5--0---00-8--0---00-5--00-3-|
PM    . . . . .          . . . . .          ..  ..    ..  ..    ..  ..    ..

Comments