Killswitch Engage - Rose Of Sharyn Chords & Tabs

 

Rose Of Sharyn Chords & Tabs

Killswitch Engage Chords & Tabs

Version: 1 Type: Bass Tab 0 ratings
1 star 2 stars 3 stars 4 stars 5 stars
comments

Rose Of Sharyn Bass Tab

   
-------------------------------------------------------------------------------
			     Rose of Sharyn - KILLSWITCH ENGAGE
-------------------------------------------------------------------------------

Tabbed By : arsonite


Tuning: CGCF

I think this is is pretty accurate.


First Verse      (Fast)
|-----------------------------------------------------------------------------|
|-----------------------------------------------------------------------------|
|---------------------------------------------------------------1-1-1--3-3-3-3|
|15\\\\-0-0-0-0--0-0-0-1--1-0-0-0--0-0-0-1--1-0-0-0--0-0-0-0--0---------------|


2nd Verse                                                                
|---------------------------------------------------------------------------|
|---------------------------------------------------------------------------|
|---------------------------------------------------------1-1-1--3-3-3-3----|
|-0-0-0-0--0-0-0-1--1-0-0-0--0-0-0-1--1-0-0-0--0-0-0-0--0-------------------|


Pre-Chorus
|---------------------------------------------------------------------------|
|---------------------------------------------------------------------------|
|------------------------------------1---1-----1---1-----1---1--------------|
|-0---0-----0---0-----0---0----------------------------------------5---5----|



|---------------------------------------------------------------------------|
|---------------------------------------------------------------------------|
|---------------------3---3-----3---3-----3---3-----3---3-----3---3-----3--3|
|-5---5-----5---5-----------------------------------------------------------|


Chorus
|---------------------------------------------------------------------------|
|---------------------------------------------------------------------------|
|---------------------------------------------------------------------------|
|-1---1-1--1-1-1-1--1-1-1-1-1-1-1-3^3--3-3--3-3-3-3--3-3-3-3-3-3-3-5^5--5-5-|



|---------------------------------------------------------------------------|
|---------------------------------------------------------------------------|
|---------------------------------------------------------------------------|
|-5-5-5-5--5-5-5-5-5-5-5-8^8-8-8-8-8-8-8^8-8-0-3^3-3--0-1-------------------|


Play this after first chorus and then play first verse at (0:58)
|---------------------|
|---------------------|
|---------------------|
|-//8-8-8-8--8-8-8-8--|


third verse  (1:09)
[ Tab from: http://www.guitartabs.cc/tabs/k/killswitch_engage/rose_of_sharyn_btab.html ]
|---------------------------------------------------------------------------|
|---------------------------------------------------------------------------|
|---------------------------------------------------------1-1-1--3-3-3-3----|
|-0-0-0-0--0-0-0-1--1-0-0-0--0-0-0-1--1-0-0-0--0-0-0-0--0-------------------|



Play pre-chorus and then chorus and then |---------------------------------|
                                         |---------------------------------|
                                         |-------------------------10^-----|
                                         |-//8-8-8--8-8-8-8--8-8-8-----0-1-|

Bridge ( 1:57)
|---------------------------------------------------------------------------|
|---------------------------------------------------------------------------|
|---------------------------------------------------------------------------|
|-1---1-1--1-1-1-1--1-1-1-1-3/5-0-3^3--3-3---3-3--3-3-3-3--3-3-3-3-5/7-0-5--|



|---------------------------------------------------------------------------|
|---------------------------------------------------------------------------|
|---------------------------------------------------------------------------|
|-5-5-5-5--5-5-5-5--5-5-5-5--5-5-5-5/8--8-8-8-8--8-8-8-8--8-8-0-3-3-3-0-1---|


Interlude ( 2:18) ( quarter time)
|---------------------------------------------------------------------------|
|-------------1^1-------------------------3--------------------------5------|
|---------------------------------------------------------------------------|
|-1----1^1--------------------3----3^3-------------------5----5^5-----------|



|---------------------------------------------------------------------------|
|---------------8-----------------------------------------------------------|
|---------------------------------------------------------------------------|
|-----8----8----------8---8---8\--------8---8---8-8-8-8-//12\1--------------|


Outro (2:39)

|---------------------------------------------------------------------------|
|---------------------------------------------------------------------------|
|---------------------------------------------------------------------------|
|-1---1-1--1-1-1-1--1-1-1-1-3/5-0-3^3--3-3---3-3--3-3-3-3--3-3-3-3-5/7-0-5--|



|---------------------------------------------------------------------------|
|---------------------------------------------------------------------------|
|---------------------------------------------------------------------------|
|-5-5-5-5--5-5-5-5--5-5-5-5--5-5-5-5/8--8-8-8-8--8-8-8-8--8-8-0-3-3-3-0-1---|


that's about it I think.

| ^  bend up
| /  slide up
| \  slide down
| h  hammer-on
| p  pull-off
| ~  vibrato
| +  harmonic
| x  Mute note
===============================================================================
Comments