Killswitch Engage - Rise Inside Chords & Tabs

 

Rise Inside Chords & Tabs

Killswitch Engage Chords & Tabs

Version: 1 Type: Tab 0 ratings
1 star 2 stars 3 stars 4 stars 5 stars
comments

Rise Inside Tab

   
Song: Rise Inside
Artist: Killswitch Engage
Album: Alive or Just Breathing
Tabbed by: Christian / silent_warrior_@hotmail.com

///X - Scratch string with pick
PM - Palm mute
* - Harmonic
/ - Slide up
\ - Slide down
x - Mute string


Tuning: C G C F A D


Intro
|------|     |-----|     |----------|
|------|     |-----|     |----------|
|------| x1  |-----| x4  |-9*9*9*9*-| x1
|------|     |--0--|     |-9*9*9*9*-|
|------|     |--0--|     |----------|
|-///X-|     |--0--|     |----------|


|--------------------------------------------------------------------------|
|--------------------------------------------------------------------------|
|--------------------------------------------------------------------------| x4
|-1-0--0-0-0-0-0--3-3--0-0--8-8\3--3\1--1-0--0-0-0-0-0--3-3--0-0-0-2-3-1-0-|
|-1-0--0-0-0-0-0--3-3--0-0--8-8\3--3\1--1-0--0-0-0-0-0--3-3--0-0-0-2-3-1-0-|
|-1-0--0-0-0-0-0--3-3--0-0--8-8\3--3\1--1-0--0-0-0-0-0--3-3--0-0-0-2-3-1-0-|
PM     - - - - -       - -                   - - - - -       - - - - - - -


Verse
|----------------------------------------------------------|
|----------------------------------------------------------|
|----------------------------------------------------------| x1
|-0-0-0-0-0-0-1-3-3-3-3-3-8-8-8-8-8-7-7-7-7-7-7-7--2-3-1-0-|
|-0-0-0-0-0-0-1-3-3-3-3-3-8-8-8-8-8-7-7-7-7-7-7-7--2-3-1-0-|
|-0-0-0-0-0-0-1-3-3-3-3-3-8-8-8-8-8-7-7-7-7-7-7-7--2-3-1-0-|
PM  - - - - - - - - - - - - - - - - - - - - - - -  - - - -


|----------------------------------------------------------|
|----------------------------------------------------------| 
|----------------------------------------------------------| x1
|-0-0-0-0-0-0-1-3-3-3-3-3-8-8-8-8-8-0-0-0-0-0-0-0--2-3-1-0-|
|-0-0-0-0-0-0-1-3-3-3-3-3-8-8-8-8-8-0-0-0-0-0-0-0--2-3-1-0-|
|-0-0-0-0-0-0-1-3-3-3-3-3-8-8-8-8-8-0-0-0-0-0-0-0--2-3-1-0-|
PM  - - - - - - - - - - - - - - - - - - - - - - -  - - - -


|-------------------------------------------------|
|-------------------------------------------------|
|-------------------------------------------------| x1
|-0-0-0-0-0-0-1-3-3-3-3-3-8-8-8-8-8-7-7-7-7-7-7-7-|
|-0-0-0-0-0-0-1-3-3-3-3-3-8-8-8-8-8-7-7-7-7-7-7-7-|
|-0-0-0-0-0-0-1-3-3-3-3-3-8-8-8-8-8-7-7-7-7-7-7-7-|
PM  - - - - - - - - - - - - - - - - - - - - - - -


|-------------------------------------------------|
|-------------------------------------------------| 
|-------------------------------------------------| x1
|-0-0-0-0-0-0-1-3-3-3-3-3-8-8-8-8-8-0-0-0-0-0-0-0-|
|-0-0-0-0-0-0-1-3-3-3-3-3-8-8-8-8-8-0-0-0-0-0-0-0-|
|-0-0-0-0-0-0-1-3-3-3-3-3-8-8-8-8-8-0-0-0-0-0-0-0-|
PM  - - - - - - - - - - - - - - - - - - - - - - -


Chorus - Guitar 1
|----------------------|
|-6\5-5-5-5--8-8-8-8-8-|
|-5-5-5-5-5--7-7-7-7-7-| x4
|-3-3-3-3-3--5-5-5-5-5-|
|-3-3-3-3-3--5-5-5-5-5-|
|----------------------|


Chorus - Guitar 2
|---------|
|---------|
|---------| x8
|-0-0-0-0-|
|-0-0-0-0-|
|-0-0-0-0-|
PM- - -


|--------------------------------|
|--------------------------------|
|-5-7--5-7--5-7--5-4--6-4--5/7\3-| x2
|-3-5--3-5--3-5--3-2--4-2--3/5\1-|
|--------------------------------|
|--------------------------------|


|------------------------------|     |----------|
|------------------------------|     |----------|
|------------------------------|  x3 |--------5-|  x1
|-0-0-0-0-0-0-0--0-0-0-0-0-0-0-|     |-3--10--3-|
|-0-0-0-0-0-0-0--0-0-0-0-0-0-0-|     |-3--10--3-|
|-0-0-0-0-0-0-0--0-0-0-0-0-0-0-|     |-3--10--3-|
PM  - -   - -    - -   -   -


Verse
|----------------------------------------------------------|
|----------------------------------------------------------|
|----------------------------------------------------------| x1
|-0-0-0-0-0-0-1-3-3-3-3-3-8-8-8-8-8-7-7-7-7-7-7-7--2-3-1-0-|
|-0-0-0-0-0-0-1-3-3-3-3-3-8-8-8-8-8-7-7-7-7-7-7-7--2-3-1-0-|
|-0-0-0-0-0-0-1-3-3-3-3-3-8-8-8-8-8-7-7-7-7-7-7-7--2-3-1-0-|
PM  - - - - - - - - - - - - - - - - - - - - - - -  - - - -

[ Tab from: http://www.guitartabs.cc/tabs/k/killswitch_engage/rise_inside_tab.html ]
|----------------------------------------------------------|
|----------------------------------------------------------| 
|----------------------------------------------------------| x1
|-0-0-0-0-0-0-1-3-3-3-3-3-8-8-8-8-8-0-0-0-0-0-0-0--2-3-1-0-|
|-0-0-0-0-0-0-1-3-3-3-3-3-8-8-8-8-8-0-0-0-0-0-0-0--2-3-1-0-|
|-0-0-0-0-0-0-1-3-3-3-3-3-8-8-8-8-8-0-0-0-0-0-0-0--2-3-1-0-|
PM  - - - - - - - - - - - - - - - - - - - - - - -  - - - -


|-------------------------------------------------|
|-------------------------------------------------|
|-------------------------------------------------| x1
|-0-0-0-0-0-0-1-3-3-3-3-3-8-8-8-8-8-7-7-7-7-7-7-7-|
|-0-0-0-0-0-0-1-3-3-3-3-3-8-8-8-8-8-7-7-7-7-7-7-7-|
|-0-0-0-0-0-0-1-3-3-3-3-3-8-8-8-8-8-7-7-7-7-7-7-7-|
PM  - - - - - - - - - - - - - - - - - - - - - - -


|-------------------------------------------------|
|-------------------------------------------------| 
|-------------------------------------------------| x1
|-0-0-0-0-0-0-1-3-3-3-3-3-8-8-8-8-8-0-0-0-0-0-0-0-|
|-0-0-0-0-0-0-1-3-3-3-3-3-8-8-8-8-8-0-0-0-0-0-0-0-|
|-0-0-0-0-0-0-1-3-3-3-3-3-8-8-8-8-8-0-0-0-0-0-0-0-|
PM  - - - - - - - - - - - - - - - - - - - - - - -


Chorus - Guitar 1
|----------------------|
|-6\5-5-5-5--8-8-8-8-8-|
|-5-5-5-5-5--7-7-7-7-7-| x4
|-3-3-3-3-3--5-5-5-5-5-|
|-3-3-3-3-3--5-5-5-5-5-|
|----------------------|


Chorus - Guitar 2
|---------|
|---------|
|---------| x8
|-0-0-0-0-|
|-0-0-0-0-|
|-0-0-0-0-|
PM- - -


|--------------------------------|
|--------------------------------|
|-5-7--5-7--5-7--5-4--6-4--5/7\3-| x2
|-3-5--3-5--3-5--3-2--4-2--3/5\1-|
|--------------------------------|
|--------------------------------|


|------------------------------|     |----------|
|------------------------------|     |----------|
|------------------------------| x3  |--------5-|  x1
|-0-0-0-0-0-0-0--0-0-0-0-0-0-0-|     |-3--10--3-|
|-0-0-0-0-0-0-0--0-0-0-0-0-0-0-|     |-3--10--3-|
|-0-0-0-0-0-0-0--0-0-0-0-0-0-0-|     |-3--10--3-|
PM  - -   - -    - -   -   -


Bridge - Guitar 1
|-----------------------------------------------------|      |------|
|-----------------------------------------------------|      |------|
|-----------------------------------------------------| x4   |------| x1
|-------------------------------------------4-x-3-x-2-|      |--8\--|
|-----------------------5p3-----------------4-x-3-x-2-|      |--8\--|
|-2h3p2--2h3p2--2h3p2--------2h3p2--2h3p2---4-x-3-x-2-|      |--8\--|


Bridge - Guitar 2
|---------------------------------------------|
|---------------------------------------------|
|---------------------------------------------| x4
|---------------------------------------------|
|---------------------------------------------|
|-0-0-0-0-0-0-0-0-0-0-0-0-0-0-0-0-0-0-0-0-0-0-|
PM- - - - - - - - - - - - - - - - - - - - - -


Clean
|-----------------------------------------------------------------------------|
|-------9-9--------9-9---------------9-9-------9-9--------------9-9-------9-9-|
|---8----------8----------8------8---------8---------8------8---------8-------| x1
|-6---6------6---6------6---6--5---5-----5---5-----5---5--6---6-----6---6-----|
|-----------------------------------------------------------------------------|
|-----------------------------------------------------------------------------|


|----------|
|----------|
|--------5-|  x1
|-3--10--3-|
|-3--10--3-|
|-3--10--3-|


|--------------------------------|
|--------------------------------|
|-5-7--5-7--5-7--5-4--6-4--5/7\3-| x6
|-3-5--3-5--3-5--3-2--4-2--3/5\1-|
|--------------------------------|
|--------------------------------|


|----------|
|----------|
|--------5-|  x1
|-3--10--3-|
|-3--10--3-|
|-3--10--3-|


|-------|     |-----|
|-------|     |-----|
|-------| x1  |-----| x4
|-1/8\1-|     |--0--|
|-1/8\1-|     |--0--|
|-1/8\1-|     |--0--|


Outro
|--------------------------------------------------------------------------|
|--------------------------------------------------------------------------|
|--------------------------------------------------------------------------| Repeat till end
|-1-0--0-0-0-0-0--3-3--0-0--8-8-3--3-1--1-0--0-0-0-0-0--3-3--0-0-0-2-3-1-0-|
|-1-0--0-0-0-0-0--3-3--0-0--8-8-3--3-1--1-0--0-0-0-0-0--3-3--0-0-0-2-3-1-0-|
|-1-0--0-0-0-0-0--3-3--0-0--8-8-3--3-1--1-0--0-0-0-0-0--3-3--0-0-0-2-3-1-0-|
PM- -  - - - - -  - -  - -  - - -  - -  - -  - - - - -  - -  - - - - - - -
Comments