Killswitch Engage - Prelude Chords & Tabs

 

Prelude Chords & Tabs

Killswitch Engage Chords & Tabs

Version: 1 Type: Tab 0 ratings
1 star 2 stars 3 stars 4 stars 5 stars
comments

Prelude Tab

Band- Killswitch Engage
Song- Prelude

/      slide up
\\      slide down
x///   pick slide
x      open palm mute

---------------------------------------------------|
---------------------------------------------------|
---------------------------------------------------|
-----5/7\\5/7--------------------------------------|
-----3/5\\3/5--------------------------------------|
---------------xxxxxxxxxxxxxxxxxxxxxxxxxxxx--------|


--------------------------------------------------------------------|
--------------------------------------------------------------------|
--------------------------------------------------------------------|
-----7\\5/7------------------------77----77---7---77----------------|
-----5\\3/5------------------------55----55---5---55x////////------|
-------------xxxxxxxxxxxxx-----------x-----x---x--------------------|


-------------------------------------------------|
-------------------------------------------------|
-------------------------------------------------|
-----7\\5/7------------10--------5-------3-------|
-----5\\3/5-------------8--------3-------1-------|
--------------x-xxx-x-----x-x-x----x-x-----x-----|


-----------------------------------------------|
-----------------------------------------------|
-----------------------------------------------|
-----7\\5/7------------10--------5-------3-----|
-----5\\3/5-------------8--------3-------1-----|
-------------x-xxx-x-----x-x-x-----x x---------|


------------------------------------------------|
------------------------------------------------|
------------------------------------------------|
-----7\\5/7------------10--------5-------3------|
-----5\\3/5-------------8--------3-------1------|
--------------x-xxx-x-----x-x-x----x-x-----x----|


----------------------------------------------|
----------------------------------------------|
----------------------------------------------|
-----7\\5/7------------10--------5-------3----|
-----5\\3/5-------------8--------3-------1----|
-------------x-xxx-x-----x-x-x-----x x--------|


-----------------------------------------------------------------------------------|
-----------------------------------------------------------------------------------|
-----------------------------------------------------------------------------------|
-----7\\--------------5--------3--------7------------------5--------3------10-8----|
-----5\\--------------3--------1--------5------------------3--------1-------8-6----|
---------x-x-x-x-x-----x-x-x----x-x-x-----x-x-x-x-x-x-x-----x-x-x----x-x-----------|


---------------------------------------------------------------------------------|
---------------------------------------------------------------------------------|
---------------------------------------------------------------------------------|
-----7--------------5--------3--------7------------------5--------3------10-8----|
-----5--------------3--------1--------5------------------3--------1-------8-6----|
--------x-x-x-x-x-----x-x-x----x-x-x-----x-x-x-x-x-x-x-----x-x-x----x-x----------|


-----------------------------------------------------------|
-----------------------------------------------------------|
-----------------------------------------------------------|
-----7-7-7------5-5---3-3-3----7-7-7-------5-5---3---------|
-----5-5-5------3-3---1-1-1----5-5-5-------3-3---1---------|
-----------xxx------x--------x--------xxx------x---x-x-x---|

---------------------------------------------------------|
---------------------------------------------------------|
---------------------------------------------------------|
-----7-7-7------5-5---3-3-3----7-7-7-------5-5---3-3-3---|
-----5-5-5------3-3---1-1-1----5-5-5-------3-3---1-1-1---|
-----------xxx------x--------x--------xxx------x---------|

[ Tab from: http://www.guitartabs.cc/tabs/k/killswitch_engage/prelude_tab.html ]
---------------------------------------------------|
---------------------------------------------------|
---------------------------------------------------|
-----5/7\\5/7--------------------------------------|
-----3/5\\3/5--------------------------------------|
---------------xxxxxxxxxxxxxxxxxxxxxxxxxxxx--------|


--------------------------------------------------------------------|
--------------------------------------------------------------------|
--------------------------------------------------------------------|
-----7\\5/7------------------------77----77---7---77----------------|
-----5\\3/5------------------------55----55---5---55x////////------|
-------------xxxxxxxxxxxxx-----------x-----x---x--------------------|


-------------------------------------------------|
-------------------------------------------------|
-------------------------------------------------|
-----7\\5/7------------10--------5-------3-------|
-----5\\3/5-------------8--------3-------1-------|
--------------x-xxx-x-----x-x-x----x-x-----x-----|


-----------------------------------------------|
-----------------------------------------------|
-----------------------------------------------|
-----7\\5/7------------10--------5-------3-----|
-----5\\3/5-------------8--------3-------1-----|
-------------x-xxx-x-----x-x-x-----x x---------|


------------------------------------------------|
------------------------------------------------|
------------------------------------------------|
-----7\\5/7------------10--------5-------3------|
-----5\\3/5-------------8--------3-------1------|
--------------x-xxx-x-----x-x-x----x-x-----x----|


----------------------------------------------|
----------------------------------------------|
----------------------------------------------|
-----7\\5/7------------10--------5-------3----|
-----5\\3/5-------------8--------3-------1----|
-------------x-xxx-x-----x-x-x-----x x--------|


-----------------------------------------------------------------------------------|
-----------------------------------------------------------------------------------|
-----------------------------------------------------------------------------------|
-----7\\--------------5--------3--------7------------------5--------3------10-8----|
-----5\\--------------3--------1--------5------------------3--------1-------8-6----|
---------x-x-x-x-x-----x-x-x----x-x-x-----x-x-x-x-x-x-x-----x-x-x----x-x-----------|


---------------------------------------------------------------------------------|
---------------------------------------------------------------------------------|
---------------------------------------------------------------------------------|
-----7--------------5--------3--------7------------------5--------3------10-8----|
-----5--------------3--------1--------5------------------3--------1-------8-6----|
--------x-x-x-x-x-----x-x-x----x-x-x-----x-x-x-x-x-x-x-----x-x-x----x-x----------|


-----------------------------------------------------------|
-----------------------------------------------------------|
-----------------------------------------------------------|
-----7-7-7------5-5---3-3-3----7-7-7-------5-5---3---------|
-----5-5-5------3-3---1-1-1----5-5-5-------3-3---1---------|
-----------xxx------x--------x--------xxx------x---x-x-x---|

---------------------------------------------------------|
---------------------------------------------------------|
---------------------------------------------------------|
-----7-7-7------5-5---3-3-3----7-7-7-------5-5---3-3-3---|
-----5-5-5------3-3---1-1-1----5-5-5-------3-3---1-1-1---|
-----------xxx------x--------x--------xxx------x---------|


-------------------------|
-------------------------|
-------------------------|
-----3---2-----5-----7---|
-----1---0-----3-----5---|
-------------------------|
Comments