Killswitch Engage - Numbered Days Chords & Tabs

 

Numbered Days Chords & Tabs

Killswitch Engage Chords & Tabs

Version: 5 Type: Tab

Numbered Days Tab

Killswitch Engage- Numbered Days ( Alive Or Just Breathing)

h-hammeron
p-pulloff
*-pinch harmonics
/-slide up
-slide down
pm-palm mute
~-tremlo picking

Intro(Both Guitars)

D--------------------------------------|
A--------------------------------------|
F--------------------------------------|
C-------3p0-1p0-3p0--------------------|  x 2
G-001p0-3p0-1p0-3p0-1h0----------------|
C-001p0-------------1h0----------------|

D---------------------------------------|
A---------------------------------------|
F---------------------------------------|
C---------------------------------------|
G-00-00--00-00-9------------------------|
C-00-00--00-00-9------------------------|

(Guitar 1)
D---------------------------------------------------------------|
A---------------------------------------------------------------|
F-9----------------12----------------7--------------------------|
C--7-----------------10---------------5-------------------------|
G---5------------------8---------------3-------------0---12-----|
C----------------------------------------------------0---12-----|
(Guitar 2)
D---------------------------------------------------------------|
A---------------------------------------------------------------|
F---------------------------------------------------------------|
C------------------------------------5---555--555--550----------|
G-0---000--000--003------333--333--333---333--333--330---12-----|
C-0---000--000--003------333--333--33--------------------12-----|

Verse Riff
(Both Guitars)
D--------------------------------------------------------------    ------|
A--------------------------------------------------------------    ------|
F--------------------------------------------------------------    ------|
C-------3p0-1p0-3p0-------------------------------------------- x4 --3*--|
G-001p0-3p0-1p0-3p0-1h00-00-00-0-1h00-00-00-0-1h00-00-0--------    ------|
C-001p0-------------1h00-00-00-0-1h00-00-00-0-1h00-00-0--------    ------|

Pre chorus riff
(Both Guitars)
D--------------------------------------------------------------|
A--------------------------------------------------------------|
F--------------------------------------------------------------|
C-------------------------------3*-----------------------------| x2
G---5--5--3--5--1--3--5--3--5-3--------------------------------|
C-00-00-00-00-00-00-00-00-00-----------------------------------|

Then......

(Guitar 1)
D--------------------------------------------------------------|
A--------------------------------------------------------------|
F--------------------------------------------------------------|
C---------------------------------3*---------------------------|   x2
G---5--5--3--3-------1--3--1--8-5------------------------------|
C-00-00-00-00-00-3-00-00-00-00---------------------------------|

(Guitar 2)

D--------------------------------------------------------------|
A--------------------------------------------------------------|
F--------------------------------------------------------------|
C--------------------------------------------------------------| x2
G-0---------------8-10-----------------------------------------|
C-0---------------8-10-----------------------------------------|

Second verse riff

(Both Guitars)

D--------------------------------------------------------------|
A--------------------------------------------------------------|
F--------------------------------------------------------------|
C-------3p0-1p0-3p0--------------------------------------------|
G-001h0-3p0-1p0-3p0-1p0-0000--0000-----------------------------|
C-001h0-------------1p0-0000--0000-----------------------------|


THEN DO THE PRE-CHORUS RIFF!

(Guitar 1)
D--------------------------------------------------------------|
A--------------------------------------------------------------|
F--------------------------------------------------------------|
C--------------------------------------------------------------|
G-~8-~7-~8-~12-~10-~8-~8-~7-~8-~15-~13-~12-~8------------------|
C--------------------------------------------------------------|
[ Tab from: http://www.guitartabs.cc/tabs/k/killswitch_engage/numbered_days_tab_ver_5.html ]
D--------------------------------------------------------------|
A--------------------------------------------------------------|
F--------------------------------------------------------------|
C--------------------------------------------------------------|
G-~8-~7-~8-~12-~10-~8-~8-~7-~8-~15-~13-~12-8*------------------|
C--------------------------------------------------------------|

(Guitar 2)
D--------------------------------------------------------------|
A--------------------------------------------------------------|
F--------------------------------------------------------------|
C--------------------------------------------------------------|
G--0--------3----------5--------8------------------------------|
C--0--------3----------5--------8------------------------------|

Repeat the above once more!

THEN.....

Chorus

(Guitar 1)

D---------------------------------------------------------------|
A---------------------------------------------------------------|
F---------------------------------------------------------------|
C---------------------------------------------------------------|
G---3--5--8--7--3-5--5--7--10--8--7-8----8--10--13-12--10h12p10-|
C-00-00-00-00-00---88-00-00--00-00---1010-00-00--00--00---------|

(Guitar 2)

D--------------------------------------------------------------|
A--------------------------------------------------------------|
F--------------------------------------------------------------|
C--------------------------------------------------------------|
G-0----------------3-----------------5-------------------------|
C-0----------------3-----------------5-------------------------|

(Guitar 1)

D--------------------------------------------------------------|
A--------------------------------------------------------------|
F--------------------------------------------------------------|
C--------------------------------------------------------------|
G---7---8--15--13---12h13p12-----------------------------------|
C-88--00-00--00--00--------------------------------------------|

(Guitar 2)

D--------------------------------------------------------------|
A--------------------------------------------------------------|
F--------------------------------------------------------------|
C--------------------------------------------------------------|
G-8------------------------------------------------------------|
C-8------------------------------------------------------------|

REPEAT THE WHOLE CHORUS RIFFS ONCE MORE!

Bridge

(Guitar 1)

D---------------------------------------------------------------|
A---------------------------------------------------------------|
F-------9/109----------9------9/109---------10------------------|
C-----7--------7-------7-----7-------7------8-------------------|
G--0-5----------5--0-5----0-5---------5--0-6--------------------|
C---------------------------------------------------------------|

(Guitar 2)

D--------------------------------------------------------------|
A--------------------------------------------------------------|
F--------------------------------------------------------------|
C--------------------------------------------------------------|
G--0----00----------------------------0----00------------------|
C--0----00----------------------------0----00------------------|

(Guitar 1)

D---------------------------------------------------------------|
A---------------------------------------------------------------|
F--------12/1312-------------12-------7/87-----------7----------|
C-----10----------10-------10--------5-------5-------5----------|
G-0-8----------------8-0-8-------0-3-----------3-0-3------------|
C---------------------------------------------------------------|

(Guitar 2)

D----------------------------------------------------------------|
A----------------------------------------------------------------|
F----------------------------------------------------------------|
C----------------------------------------------------------------|
G-10------------------------------5------------------------------|
C-10------------------------------5------------------------------|

REPEAT THE BRIDGE RIFFS TWICE MORE!

REPEAT THE CHORUS AGAIN!

NOW REPEAT THE 1ST VERSE RIFF 4 TIMES!


well thats it, im not too sure about the chorus riff for guitar 1, it fits the song 
Im pretty sure the rest of the song is correct.

Enjoy Playing it!

Thomas Broster