Killswitch Engage - Numbered Days Chords & Tabs

 

Numbered Days Chords & Tabs

Killswitch Engage Chords & Tabs

Version: 3 Type: Tab 0 ratings
1 star 2 stars 3 stars 4 stars 5 stars
comments

Numbered Days Tab

Killswitch Engage- Numbered Days
Tuning: (CGCFAD)


Both Guitars
|----------------------------------|
|----------------------------------|
|----------------------------------|
|------2-----1-----------1---------|
|-0-0--2-----1-----2-----1-----1p0-|
|-0-0-----0-----0--2--0-----0--1p0-|
  . .     .     .     .     .

Both Guitars
|----------------------------------|
|----------------------------------|
|----------------------------------|
|------2-----1-----------1---------|
|-0-0--2-----1-----2-----1-----1p0-|
|-0-0-----0-----0--2--0-----0--1p0-|
  . .     .     .     .     .

Both Guitars
|---------------------------------|
|---------------------------------|
|---------------------------------|
|---------------------------------|
|-0-0-0-0----0-0-0-0--12/0-12/----|
|-0-0-0-0----0-0-0-0--12/0-12/----|
  . . . .    . . . .

Guitar 1         Let notes ring
|-------------------------------|
|-------------------------------|
|-------------------------------|
|------0------------------------|
|-0-0--0------------------------|
|-0-0--0------------------------|
  . .

Guitar 2         Let notes ring
|-------------0----------------|
|------------------3-----------|
|-----------------------2------|
|------0---------------------0-|
|-0-0--0-----------------------|
|-0-0--0-----------------------|
  . .

Guitar 1         Let notes ring
|-------------------------------|
|-------------------------------|
|-------------------------------|
|------6------------------------|
|-0-0--3------------------------|
|-0-0--3------------------------|
  . .

Guitar 2         Let notes ring
|------------------3-------------|
|---------------------4----------|
|-------------------------5------|
|--------------6---------------6-|
|-0-0------3---------------------|
|-0-0--3-------------------------|
  . .

Both Guitars         Let notes ring
|------------------3-----------|
|---------------------3--------|
|-------------3-----------3----|
|----------5-----------------5-|
|-0-0--3-----------------------|
|-0-0--------------------------|
  . .


Both Guitars         Let notes ring
|-------------------------------------------------------|
|-------------------------------------------------------|
|-------------------------------------------------------|
|------0------------------------X///////----------------|
|-0-0--0--------------------------X//////////////////---|
|-0-0--0------------------------------X//////////////---|
  . .                           ^ pick slide

Both Guitars								          3x
|------------------------------------------------------------------------------|
|------------------------------------------------------------------------------|
|------------------------------------------------------------------------------|
|------2-----1-----------1-----------------------------------------------------|
|-0-0--2-----1-----2-----1-----1p0-------------1p0-------------1p0-------------|
|-0-0-----0-----0--2--0-----0--1p0-0-0-0-0-0-0-1p0-0-0-0-0-0-0-1p0-0-0-0-0-0-0-|
  . .     .     .     .     .      . . . . . .     . . . . . .     . . . . . .

Both Guitars
|--------------------------------------------------------------------------|
|--------------------------------------------------------------------------|
|--------------------------------------------------------------------------|
|------2-----1-----------1----------------------------------------------5*-|
|-0-0--2-----1-----2-----1-----1p0-------------1p0-------------------------|
|-0-0-----0-----0--2--0-----0--1p0-0-0-0-0-0-0-1p0-0-0-0-0-0-0-7-0-0-0-----|
  . .     .     .     .     .      . . . . . .     . . . . . .   . . .

Guitar 1
|--------------------------------------------------------------------------------------------|
|--------------------------------------------------------------------------------------------|
|--------------------------------------------------------------------------------------------|
|------------------------------------------------------------------------------3-------------|
|-5--------5-------5--------1-------1-------------------------1-------3-----------5-------5*-|
|----0--0----0--0-----0--0----0--0----0--0--1--0--0--3--0--0----0--0-----0--0---------0------|
     .  .    .  .     .  .    .  .    .  .     .  .     .  .    .  .     .  .         .

Guitar 2
|------------------------------------------------------------------------------------------|
|------------------------------------------------------------------------------------------|
|------------------------------------------------------------------------------------------|
|----------------------------------------------------------------------------7----------7*-|
|-8--------8-------8--------7-------5-------3-------3-------5-------7-----------8----------|
|----0--0----0--0-----0--0----0--0----0--0----0--0----0--0----0--0-----0--0---------0------|
     .  .    .  .     .  .    .  .    .  .    .  .    .  .    .  .     .  .         .

Guitar 1 Let notes ring
|------------------------------------------------------------------------------------|
|------------------------------------------------------------------------------------|
|------------------------------------------------------------------------------------|
|-0---------------------------------------------------------3----------3-------------|
|-0------------------------------------3--------3-----------1----------0-------------|
|-0------------------------------------2--------2-------------------------------0--0-|
										.  .
Guitar 2
|--------------------------------------------------------------------------------------------|
|--------------------------------------------------------------------------------------------|
|--------------------------------------------------------------------------------------------|
|------------------------------------------------------------------------------3-------------|
|-5--------5-------5--------1-------1-------------------------1-------3-----------5-------5*-|
|----0--0----0--0-----0--0----0--0----0--0--1--0--0--3--0--0----0--0-----0--0---------0------|
     .  .    .  .     .  .    .  .    .  .     .  .     .  .    .  .     .  .         .

Both Guitars 									        3x
|--------------------------------------------------------------------------------------|
|--------------------------------------------------------------------------------------|
|--------------------------------------------------------------------------------------|
|------2-----1-----------1-------------------------------------------------------------|
|-0-0--2-----1-----2-----1-----1p0----------------0-0-0-0------------0-0-0-0-----------|
|-0-0-----0-----0--2--0-----0--1p0----------------0-0-0-0------------0-0-0-0-----------|
  . .     .     .     .     .                     . . . .            . . . .

Both Guitars
|------------------------------------------------------------------------------------|
|------------------------------------------------------------------------------------|
|------------------------------------------------------------------------------------|
|------2-----1-----------1--------------------------------------------------------5*-|
|-0-0--2-----1-----2-----1-----1p0----------------0-0-0-0----------------------------|
|-0-0-----0-----0--2--0-----0--1p0----------------0-0-0-0------------0-0-7-0-0-0-----|
  . .     .     .     .     .                     . . . .            . .   . . .

Guitar 1
|--------------------------------------------------------------------------------------------|
|--------------------------------------------------------------------------------------------|
|--------------------------------------------------------------------------------------------|
|------------------------------------------------------------------------------3-------------|
|-5--------5-------5--------1-------1-------------------------1-------3-----------5-------5*-|
|----0--0----0--0-----0--0----0--0----0--0--1--0--0--3--0--0----0--0-----0--0---------0------|
     .  .    .  .     .  .    .  .    .  .     .  .     .  .    .  .     .  .         .

Guitar 2
|------------------------------------------------------------------------------------------|
|------------------------------------------------------------------------------------------|
|------------------------------------------------------------------------------------------|
|----------------------------------------------------------------------------7----------7*-|
|-8--------8-------8--------7-------5-------3-------3-------5-------7-----------8----------|
|----0--0----0--0-----0--0----0--0----0--0----0--0----0--0----0--0-----0--0---------0------|
     .  .    .  .     .  .    .  .    .  .    .  .    .  .    .  .     .  .         .

Guitar 1 Let notes ring
|----------------------------------------------------------------------------------------|
|----------------------------------------------------------------------------------------|
|----------------------------------------------------------------------------------------|
|-0-------------------------------------------------------------3----------3-------------|
|-0------------------------------------3--------3---------------1----------0-------------|
|-0------------------------------------2--------2-----------------------------------0--0-|
										    .  .
Guitar 2
|--------------------------------------------------------------------------------------------|
|--------------------------------------------------------------------------------------------|
|--------------------------------------------------------------------------------------------|
|------------------------------------------------------------------------------3-------------|
|-5--------5-------5--------1-------1-------------------------1-------3-----------5-------5*-|
|----0--0----0--0-----0--0----0--0----0--0--1--0--0--3--0--0----0--0-----0--0---------0------|
     .  .    .  .     .  .    .  .    .  .     .  .     .  .    .  .     .  .         .

Guitar 1 Let notes ring
|----------------------------------------------------------------------------------------------------|
|----------------------------------------------------------------------------------------------------|
|----------------------------------------------------------------------------------------------------|
|-0--------------------------------------------------------------------------3----------3--------/12-|
|-0------------------------------------3--------3----------------------------1----------0--------/12-|
|-0------------------------------------2--------2------------------------------------------------/12-|

Guitar 2
|--------------------------------------------------------------------------------------------|
|--------------------------------------------------------------------------------------------|
|--------------------------------------------------------------------------------------------|
|------------------------------------------------------------------------------3-------------|
|-5--------5-------5--------1-------1-------------------------1-------3-----------5-------5*-|
|----0--0----0--0-----0--0----0--0----0--0--1--0--0--3--0--0----0--0-----0--0---------0------|
     .  .    .  .     .  .    .  .    .  .     .  .     .  .    .  .     .  .         .

Guitar 1 Let notes ring
|-------------------------------------------|
|-------------------------------------------|
|-------------------------------------------|
|-0-----------------------------------------|
|-0-----------------------------------------|
|-0-----------------------------------------|

Guitar 2
|-------------------------------------------|
|-------------------------------------------|
|---------------------------2222------------|
|-0000-3333-2222-3333-0000--------5555-3333-|
|-------------------------------------------|
|-------------------------------------------|

Guitar 1 Let notes ring
|--------------------------------------------|
|--------------------------------------------|
|--------------------------------------------|
|-3------------------------------------------|
|-3------------------------------------------|
|-3------------------------------------------|

Guitar 2
|--------------------------------------------|
|--------------------------------------------|
|----------------------5555-33333-2222-------|
|-0000-3333-2222-3333-------------------3333-|
|--------------------------------------------|
|--------------------------------------------|

Guitar 1 Let notes ring
|-------------------------------------------|
|-------------------------------------------|
|-------------------------------------------|
|-5-----------------------------------------|
|-5-----------------------------------------|
|-5-----------------------------------------|

Guitar 2
|-------------------------------------------|
|-------------------------------------------|
|---------------------------2222------------|
|-0000-3333-2222-3333-0000--------5555-3333-|
|-------------------------------------------|
|-------------------------------------------|

Guitar 1 Let notes ring
|-----------------------------------------|
|-----------------------------------------|
|-----------------------------------------|
|-8---------------------------------------|
|-8---------------------------------------|
|-8---------------------------------------|

Guitar 2
|-----------------------------------------|
|-----------------------------------------|
|----------------------5555-33333-2222----|
|-0000-3333-2222-3333------------------3*-|
|-----------------------------------------|
|-----------------------------------------|

Guitar 1 Let notes ring
|--------------------------------------------------------|
|--------------------------------------------------------|
|--------------------------------------------------------|
|-0------------------------------------------------------|
|-0------------------------------------------------------|
|-0------------------------------------------------------|

Guitar 2
|-------------------------------------------|
|-------------------------------------------|
|---------------------------2222------------|
|-0000-3333-2222-3333-0000--------5555-3333-|
|-------------------------------------------|
|-------------------------------------------|
[ Tab from: http://www.guitartabs.cc/tabs/k/killswitch_engage/numbered_days_tab_ver_3.html ]
Guitar 1 Let notes ring
|--------------------------------------------|
|--------------------------------------------|
|--------------------------------------------|
|-3------------------------------------------|
|-3------------------------------------------|
|-3------------------------------------------|

Guitar 2
|--------------------------------------------|
|--------------------------------------------|
|----------------------5555-33333-2222-------|
|-0000-3333-2222-3333-------------------3333-|
|--------------------------------------------|
|--------------------------------------------|

Guitar 1 Let notes ring
|-------------------------------------------|
|-------------------------------------------|
|-------------------------------------------|
|-5-----------------------------------------|
|-5-----------------------------------------|
|-5-----------------------------------------|

Guitar 2
|-------------------------------------------|
|-------------------------------------------|
|---------------------------2222------------|
|-0000-3333-2222-3333-0000--------5555-3333-|
|-------------------------------------------|
|-------------------------------------------|

Guitar 1 Let notes ring
|---------------------|
|---------------------|
|---------------------|
|-8-------------------|
|-8-------------------|
|-8-------------------|

Guitar 2
|---------------------|
|---------------------|
|---------------------|
|-0000-3333-2222-3333-|
|---------------------|
|---------------------|

Both Guitars
|-------------------------------|
|-------------------------------|
|-------------------------------|
|----3-3-----3-3--0----0--------|
|----1-1-----0-0--0----0--------|
|-0-------0-------0----0--------|
   Don't let ring-^    ^-Let ring

Both Guitars
|-------------------------------------------|
|-------------------------------------------|
|-------------------------------------------|
|-3-----7---------5--------3--------5h7-----|
|-3---------------------------------------5-|
|-3--3-----3--3-----3--3-----3--3-----------|
     .     .  .     .  .     .  .

Both Guitars
|-------------------------------------------|
|-------------------------------------------|
|-------------------------------------------|
|-5-----8---------7--------5---------7h8----|
|-5---------------------------------------5-|
|-5--5-----5--5-----5--5-----5--5-----------|
     .     .  .     .  .     .  .

Both Guitars
|-------------------------------------------------|
|-------------------------------------------------|
|-----10--------10p9------------------12----------|
|-8---------------------10-----10----------10-----|
|-8---------------------------------------------8-|
|-8-------8--8--------------8------8--------------|
          .  .              .      .

Both Guitars
|------------|
|------------|
|------------|
|-0--------0-|
|-0--0--0--0-|
|-0--0--0--0-|
     .  .  ^ Let ring

 Both Guitars
|-------------------------------------------|
|-------------------------------------------|
|-------------------------------------------|
|-3-----7---------5--------3--------5h7-----|
|-3---------------------------------------5-|
|-3--3-----3--3-----3--3-----3--3-----------|
     .     .  .     .  .     .  .

Both Guitars
|-------------------------------------------|
|-------------------------------------------|
|-------------------------------------------|
|-5-----8---------7--------5---------7h8----|
|-5---------------------------------------5-|
|-5--5-----5--5-----5--5-----5--5-----------|
     .     .  .     .  .     .  .

Both Guitars
|-------------------------------------------------|
|-------------------------------------------------|
|-------------------------------------------------|
|-10-10-10-10-10-10-10-10-10-10-10-10-10-10-10-10-|
|-8--8--8--8--8--8--8--8--8--8--8--8--8--8--8--8--|
|-8--8--8--8--8--8--8--8--8--8--8--8--8--8--8--8--|


Guitar 1
|------------------------------------------------------------------------------|
|----------5h6p5---------------------5--------------5h6p5--------------------6-|
|-------7----------------------------------------7-----------------------------|
|----7--------------7------------7------------7--------------7------------7----|
|-5--------------------5--4--5-------------5---------------------5--4--5-------|
|------------------------------------------------------------------------------|
  .  .  .                 .  .   .         .  .  .                  .  .  .

Guitar 2
|------------------------------------------------------------------------------|
|------------------------------------------------------------------------------|
|------------------------------------------------------------------------------|
|------------------------------------------------------------------------------|
|-0-----------------0--0------------------0-------------------0--0--------12/--|
|-0-----------------0--0------------------0-------------------0--0--------12/--|
  .                 .  .                  .                   .  .

Guitar 1
|---------------------------------------------------------------------------|
|--------------8h9p8----------------------8-------------3h4p3---------------|
|---------10----------------------------------------5-----------------------|
|-----10----------------10------------10---------5--------------5---------1-|
|-8--------------------------8--7--8----------3--------------------3------1-|
|----------------------------------------------------------------------0--1-|
  .   .   .                     .  .  .       .  .  .                  .

Guitar 2 Let notes ring
|---------------------------------------------------------------------------|
|---------------------------------------------------------------------------|
|---------------------------------------------------------------------------|
|-3---------------------------------------------5----------------5--5-----1-|
|-3---------------------------------------------3----------------3--3-----1-|
|-3---------------------------------------------5----------------5--5--0--1-|
								           .

Guitar 1
|------------------------------------------------------------------------------|
|----------5h6p5---------------------5--------------5h6p5--------------------6-|
|-------7----------------------------------------7-----------------------------|
|----7--------------7------------7------------7--------------7------------7----|
|-5--------------------5--4--5-------------5---------------------5--4--5-------|
|------------------------------------------------------------------------------|
  .  .  .                 .  .   .         .  .  .                  .  .  .

Guitar 2
|------------------------------------------------------------------------------|
|------------------------------------------------------------------------------|
|------------------------------------------------------------------------------|
|------------------------------------------------------------------------------|
|-0-----------------0--0------------------0-------------------0--0-------------|
|-0-----------------0--0------------------0-------------------0--0-------------|
  .                 .  .                  .                   .  .

Guitar 1
|---------------------------------------------------------------------------|
|--------------8h9p8----------------------8-------------3h4p3---------------|
|---------10----------------------------------------5-----------------------|
|-----10----------------10------------10---------5--------------5---------1-|
|-8--------------------------8--7--8----------3--------------------3------1-|
|----------------------------------------------------------------------0--1-|
  .   .   .                     .  .  .       .  .  .                  .

Guitar 2 Let notes ring
|---------------------------------------------------------------------------|
|---------------------------------------------------------------------------|
|---------------------------------------------------------------------------|
|-3---------------------------------------------5----------------5--5-----1-|
|-3---------------------------------------------3----------------3--3-----1-|
|-3---------------------------------------------5----------------5--5--0--1-|
								           .

Guitar 1
|------------------------------------------------------------------------------|
|----------5h6p5---------------------5--------------5h6p5--------------------6-|
|-------7----------------------------------------7-----------------------------|
|----7--------------7------------7------------7--------------7------------7----|
|-5--------------------5--4--5-------------5---------------------5--4--5-------|
|------------------------------------------------------------------------------|
  .  .  .                 .  .   .         .  .  .                  .  .  .

Guitar 2
|------------------------------------------------------------------------------|
|------------------------------------------------------------------------------|
|------------------------------------------------------------------------------|
|------------------------------------------------------------------------------|
|-0-----------------0--0------------------0-------------------0--0-------------|
|-0-----------------0--0------------------0-------------------0--0-----0-0-0-0-|
  .                 .  .                  .                   .  .     . . . .

Guitar 1
|---------------------------------------------------------------------------|
|--------------8h9p8----------------------8-------------3h4p3---------------|
|---------10----------------------------------------5-----------------------|
|-----10----------------10------------10---------5--------------5---------1-|
|-8--------------------------8--7--8----------3--------------------3------1-|
|----------------------------------------------------------------------0--1-|
  .   .   .                     .  .  .       .  .  .                  .

Guitar 2 Let notes ring
|---------------------------------------------------------------------------|
|---------------------------------------------------------------------------|
|---------------------------------------------------------------------------|
|-3---------------------------------------------5----------------5--5-----1-|
|-3---------------------------------------------3----------------3--3-----1-|
|-3---------------------------------------------5----------------5--5--0--1-|
								           .
Both Guitars
|------------|
|------------|
|------------|
|-0--------0-|
|-0--0--0--0-|
|-0--0--0--0-|
     .  .  ^ Let ring


Both Guitars
|-------------------------------------------|
|-------------------------------------------|
|-------------------------------------------|
|-3-----7---------5--------3--------5h7-----|
|-3---------------------------------------5-|
|-3--3-----3--3-----3--3-----3--3-----------|
     .     .  .     .  .     .  .

Both Guitars
|-------------------------------------------|
|-------------------------------------------|
|-------------------------------------------|
|-5-----8---------7--------5---------7h8----|
|-5---------------------------------------5-|
|-5--5-----5--5-----5--5-----5--5-----------|
     .     .  .     .  .     .  .

Both Guitars
|-------------------------------------------------|
|-------------------------------------------------|
|-----10--------10p9------------------12----------|
|-8---------------------10-----10----------10-----|
|-8---------------------------------------------8-|
|-8-------8--8--------------8------8--------------|
          .  .              .      .

Both Guitars
|------------|
|------------|
|------------|
|-0--------0-|
|-0--0--0--0-|
|-0--0--0--0-|
     .  .  ^ Let ring

 Both Guitars
|-------------------------------------------|
|-------------------------------------------|
|-------------------------------------------|
|-3-----7---------5--------3--------5h7-----|
|-3---------------------------------------5-|
|-3--3-----3--3-----3--3-----3--3-----------|
     .     .  .     .  .     .  .

Both Guitars
|-------------------------------------------|
|-------------------------------------------|
|-------------------------------------------|
|-5-----8---------7--------5---------7h8----|
|-5---------------------------------------5-|
|-5--5-----5--5-----5--5-----5--5-----------|
     .     .  .     .  .     .  .

Both Guitars
|-------------------------------------------------|
|-------------------------------------------------|
|-------------------------------------------------|
|-10-10-10-10-10-10-10-10-10-10-10-10-10-10-10-10-|
|-8--8--8--8--8--8--8--8--8--8--8--8--8--8--8--8--|
|-8--8--8--8--8--8--8--8--8--8--8--8--8--8--8--8--|

Guitar 1
|-------------------------------------------------------------------------|
|-------------------------------------------------------------------------|
|-------------------------------------------------------------------------|
|-2-----1-----------1-----------------------------------------------------|
|-2-----1-----2-----1-----1p0-------------1p0-------------1p0-------------|
|----0-----0--2--0-----0--1p0-0-0-0-0-0-0-1p0-0-0-0-0-0-0-1p0-0-0-0-0-0-0-|
     .     .     .     .      . . . . . .     . . . . . .     . . . . . .

Guitar 2
|-------------------------------------------------------------------------|
|-------------------------------------------------------------------------|
|-------------------------------------------------------------------------|
|-------------------------------------------------------------------------|
|-------------------------1p0-------------1p0-------------1p0-------------|
|-------------------------1p0-0-0-0-0-0-0-1p0-0-0-0-0-0-0-1p0-0-0-0-0-0-0-|
                              . . . . . .     . . . . . .     . . . . . .

Both Guitars							   	          2x
|-------------------------------------------------------------------------|
|-------------------------------------------------------------------------|
|-------------------------------------------------------------------------|
|-2-----1-----------1-----------------------------------------------------|
|-2-----1-----2-----1-----1p0-------------1p0-------------1p0-------------|
|----0-----0--2--0-----0--1p0-0-0-0-0-0-0-1p0-0-0-0-0-0-0-1p0-0-0-0-0-0-0-|
     .     .     .     .      . . . . . .     . . . . . .     . . . . . .

Both Guitars
|-------------------------------------------------------------|
|-------------------------------------------------------------|
|-------------------------------------------------------------|
|-2-----1-----------1-----------------------------------------|
|-2-----1-----2-----1-----1p0-------------1p0-------------1p0-|
|----0-----0--2--0-----0--1p0-0-0-0-0-0-0-1p0-0-0-0-0-0-0-1p0-|
     .     .     .     .      . . . . . .     . . . . . .
Comments