Killswitch Engage - Numb Sickened Eyes Chords & Tabs

 

Numb Sickened Eyes Chords & Tabs

Killswitch Engage Chords & Tabs

Version: 2 Type: Tab

Numb Sickened Eyes Tab

band: killswitch engage
song: numb sickened eyes
album: killswitch engage
     tabber: dicer4
     e-mail: dicer4@msn.com
h  hammer on
pm palm mute




intro
D|----------------------------------------------------------|
A|----------------------------------------------------------|
F|----------------------------------------------------------|
C|-----4-----4-------4----4-5-7-------4-----4--4-5-7--------|
G|-000-2-000-2---000-2-00-2-3-5---000-2-000-2--2-3-5--3-5-7-|
C|-000---000-----000---00---------000---000-----------3-5-7-|
PM ...   ...     ...   ..         ...   ...

verse 1 (sounds the same but there is a little differance, listen to the song)
D|-------------------------------------------------------------|
A|-------------------------------------------------------------|
F|-------------------------------------------------------------|
C|-----4------4------4-----4-5-7------4------4-----4-5-7-------|
G|-000-2-0000-2--000-2-000-2-3-5--000-2-0000-2-000-2-3-5-3-5-7-|
C|-000---0000----000---000--------000---0000---000-------3-5-7-|
pm ...   ....    ...   ...        ...   ....   ...

verse 2
D|------------------------------------------|
A|------------------------------------------|
F|------------------------------------------|
C|----------------------------4-5-7---------|
G|-3-00-1--3-00-1--3-00-1--00-2-3-5-3-5-7---|
C|-3-00-1--3-00-1--3-00-1--00-------3-5-7---|
pm   ..      ..      ..    ..
[ Tab from: http://www.guitartabs.cc/tabs/k/killswitch_engage/numb_sickened_eyes_tab_ver_2.html ]
pre-coures (not the proper amount of times to play eath note, listen to song)
D|---------------------------------------------|
A|-9999999999-88-1010-7777777777---------------|
F|-------------------------------7777777777777-|
C|---------------------------------------------|
G|---------------------------------------------|
C|---------------------------------------------|

choures
D|----------------------------------------------------------|
A|----------------------------------------------------------|
F|----------------------------------------------------------|
C|----------------------------------------------------------|
G|------7----5----5----3h5p4p2-------5----3----3----1h3p1p0-|
C|-7-77---55---55---55----------5-55---33---33---33---------|
pm   ..   ..   ..   ..            ..   ..   ..   ..

play verse 2
play pre-coures
play choures
play verse 1

bridge
D|------------------------------|
A|------------------------------|
F|------------------------------|
C|-----4------------4-----------|
G|-333-2-3--3---333-2-3--3--3---|
C|-333---3--3---333---3--3--3---|
pm ...   .  .   ...   .  .  .

LYRICS:
enter into a circle of light,
 engraved engraved in flesh 

stare in my eyes (suffer)
 I will not bow down (suffer)
 the only truth (suffer) I will not bow down (suffer)

 pulling words form my lips and tearing me within

 this life will remain  a mystery  to you until the day you pass away
 speak lies spilling from your lips as clear as crimson 

to you i spoke my vengence with only a smile, my lord behind me, casting out deciption.